Oops, an error
Loading. Please wait.

This Wake I Myself Have Stirred bass

version 1
version 1

Whole song

Interactive

297 views 3 this week
no commentswrite comment
1 2 3 4 5
3 more votes to show rating
add to favorites
×
Save as Personal and add changes to this tab that will be seen only by you. Learn more ›
×
You can save this tab as Personal to edit and correct it or add notes. All changes will be seen only by you. Learn more »
launch autoscroll
font size
0
reset
guitar tuner
edit
Autoscroll
slow
fast
+/-
esc
set tempo
stop
Author
Difficulty
Shai Hulud
This Wake I Myself Have Stirred
Hearts Once Nourished With Hope And Compassion
Standard Tuning

Where there asterisks, play those notes openly along with the song.  The notes are easy 
hear and it saves me some time not having to write them all out.

Comments, suggestions, and ratings are all welcome.  Thanks and enjoy! :)


Part A - 0:01 - (x2)
G|----------|
D|----------|
A|----5-4---|
E|--2-------|
    * *

Part B - 0:17 - (x4)
G|------------|
D|------------|
A|------5-4---|
E|--2-2-------|

Part C - 0:33 - (x1)
G|----------------------|
D|----------------------|
A|-----540--------540---|
E|--22-----220000-------|

Part C Variation - 0:42 - (x1)
G|---------------------------|
D|---------------------------|
A|-----540-------55555-0-----|
E|--22-----22000---------0---|

Part D - 0:53 - (x1)
G|------------|
D|------------|
A|------5-0---|
E|--2-2-------|

Part E - 0:56 - (x4)
G|----------------|
D|----------------|
A|------0-5-------|
E|--2-2-----4-5---|

Part F - 1:05 - (x4)
G|--------------------------------|
D|--------------------------------|
A|--4-----------------5-----------|
E|----0--22-22-2222-0---0-2-542---|
    * *               * * *

Part E - 1:13 - (x6)

Part F - 1:27 - (x1)

Part C - 1:36 - (x2)

Part A - 1:53 - (x2)

Part B - 2:10 - (x4)

Part C - 2:26 - (x1)

Part C Variation - 2:34 - (x1)

            
            
Suggest correction
Creating personal tab
Creating personal tab
You can edit any tab online and save it as your Personal.

You can edit, replace or remove any tab part or add personal notes – all changes will be seen only by you.

Personal tabs can be accessed anytime from any device, even offline.
Learn more »
Give kudos to tab author, rate the tab!
1 2 3 4 5
comments
print report bad tab
guest
You may want to rate the tab now too:
select rating
Wanna post a correction for this tab? Suggest correction