Oops, an error
Loading. Please wait.

Like A Fool bass

version 1
version 1

Whole song

Interactive

by Shaimus
2,011 views 1 this week
1 commentread comment
1 2 3 4 5
1 last vote to show rating
add to favorites
×
Save as Personal and add changes to this tab that will be seen only by you. Learn more ›
×
You can save this tab as Personal to edit and correct it or add notes. All changes will be seen only by you. Learn more »
launch autoscroll
font size
0
reset
guitar tuner
backing track
0:00
0:00
edit
Autoscroll
slow
fast
+/-
esc
set tempo
stop
Author
Difficulty
Shaimus
Like A Fool

Transcribed by Brendan Reilly (arcticmetal@hotmail.com)

||* *|| - Repeat
\ - Slide Down

Intro
                               3x                             2x
G||----------------------------||-----------------------------||
D||*--------------------------*||*------------------------66-*||
A||*----4-5-6--6---4-5-6-6--6-*||*----4-5-6--6---4-5-6-6-----*||
E||--4----------4--------------||--4----------4---------------||

Verse
                                          -1st Ending-  -2nd Ending-
G||--------------------------------------|-----------|| |-----------|
D||*-------------------------------------|------6---*|| |-----------|
A||*----4-5-6--6---4-5-6-6--6---4-5-6--6-|4-4-4--44-*|| |2-2-2--2---|
E||--4----------4------------4-----------|---------4-|| |------2--2-|

Pre-Chorus

G||--------------------------------------------------||
D||--------------------------------------------------||
A||-44-4--66-6--------------44-4--66-6--777777777777-||
E||-------------44-4-6-77-7--------------------------||

Chorus

G||----------------------------------------------------------|
D||-----------------1-1-2-2-3-3-2------------------2-1-1-----|
A||-2-2-----------------------------2-2------------------4-4-|
E||-----3-3-1-1-0-0---------------0-----3-3-1-1-0-0----------|

G|---------------------4------||
D|-----------1-22222222-22----||
A|-0-0--4-4---------------2---||
E|-------------------------0--||

Before Verse 2

G||-------------------------------------------------||
D||--------------------------------------------464--||
A||-----4-5-6--6---4-5-6-6--6---4-5-6--6-----46---6-||
E||--4----------4------------4----------4-4---------||

Verse
Pre-Chorus
Chorus

Bridge
                        -1st Ending-      -2nd Ending-
G||------------------|----------------|| |-----------------------|
D||*-----------------|---------------*|| |-----------------------|
A||*-4-4-6-------2-3-|4-4-6-------223*|| |-4-4-6-6-777777777777--|
E||--------3-4-6-----|------3-4-6-----|| |----------------------4|

Interlude
                                                       2x
G||----------------------------------------------------||
D||*---464--------------------------------------------*||
A||*-46---6-----456666------456666------456666--------*||
E||---------4444------234444------234444------23444444-||

G|----------------------------------------------------------|
D|----464--------------------------------------666666-------|
A|--46---6-----456666------456666------456666---------------|
E|---------4444------234444------234444------44------444444-|

G|-------------------------------------------------------------||
D|-------------------------------------------------------------||
A|-4-4-456-6--------12-2-234-4-456-6-6677777777777777-77-77-77-||
E|-----------234-4-4---------------------------------7--7--7--7||

Bass Solo

G||--------------------------10---9---------------------||
D||------------2-1--1-2--2-3---10--9--------------------||
A||------------------------------8--7\------------------||
E||-7\---2-1-----------------------------7\---2-1-1-1-1-||

Last Chorus

G||--------------------------------------------------------------44--|
D||----------------2-1-1-2-2-3-3-2------------------2-1-1-2-2-3-3---2|
A||-2-2-----------------------------2-2------------------------------|
E||-----3-3-1-1-0-0---------------0-----3-3-1-1-0-0------------------|

G|----------------------------------------------------------|
D|-----------------1-1-2-2-3---2------------------2-1-1-----|
A|-2-2-----------------------------2-2------------------4-4-|
E|-----3-3-1-1-0-0-----------1---0-----3-3-1-1-0-0----------|

G|---------------------4------||
D|-----------1-22222222-22----||
A|-0-0--4-4---------------2---||
E|-------------------------0--||

G||------------------------||
D||------------------------||
A||----4-5-6--6---4-5--6-6-||
E||-4----------4-----------||


            
            
Suggest correction
Creating personal tab
Creating personal tab
You can edit any tab online and save it as your Personal.

You can edit, replace or remove any tab part or add personal notes – all changes will be seen only by you.

Personal tabs can be accessed anytime from any device, even offline.
Learn more »
Give kudos to tab author, rate the tab!
1 2 3 4 5
comments
print report bad tab
1 comment total.
0 reply
joesmackidy 51 Jan 28, 2010 11:29 AM

perfect tab thanks a lot man i've been waiting forever for this

guest
You may want to rate the tab now too:
select rating
Wanna post a correction for this tab? Suggest correction