Oops, an error
Loading. Please wait.

One Step Closer tab

1,304 views 1 this week
no commentswrite comment
1 2 3 4 5
3 more votes to show rating
add to favorites
×
Save as Personal and add changes to this tab that will be seen only by you. Learn more ›
×
You can save this tab as Personal to edit and correct it or add notes. All changes will be seen only by you. Learn more »
launch autoscroll
font size
0
reset
how to read this tab
guitar tuner
edit
Autoscroll
slow
fast
+/-
esc
set tempo
stop
Author
Shane Harper - One Step Closer
_______________________
Woahhh ohh, hey hey
Listen
I can't keep chasing you around
all of this running just bringing me down
its got me down
Every time I look at you the angels sing
I hope you hear them too
ohhhhhhhh, oh
I hope you here them too

--------------2--|
--------------3--|
--6---6-------2--|  (X3)
--7---6---4------|
--7---4---4------|
--5-------2------|
______________________
got me feeling hypnotized
and girl it makes me feel alive
Heeyyyy Yeahhh

-------------2---|
-------------3---|
-8---7---8---2-1-|
-9---7---9-----2-|
-9---5---9-----2-|
-7-------7-------|
______________________
I'd climb the highest mountain
and I'd sail across the sea
baby for you I'd do anything
I'd fly to the moon
I'd paint your gray skies a beautiful blue
just to get one step closer to you

Don't hesitate there's no better time than now baby
the sky is falling down
well baby are you down, down, down, down

I could wait forever and a day
just to have you look my way (just look my way)
look my way yeah

--------------2--|
--------------3--|
--6---6-------2--|  (X4)
--7---6---4------|
--7---4---4------|
--5-------2------|
______________________
It's in every little thing I do
'cause baby I do it all for you
Heeyyy yeahhh

-------------2---|
-------------3---|
-8---7---8---2-1-|
-9---7---9-----2-|
-9---5---9-----2-|
-7-------7-------|
______________________
I'd climb the highest mountain
and I'd sail across the sea
baby for you I'd do anything
I'd fly to the moon
I'd paint your gray skies a beautiful blue
just to get one step closer to you

I will write you a million love songs
just to hear you sing
baby for you I'd do anything

I'd fight superman
just to hold your hand
I have to get one step closer to you

--------------2--|
--------------3--|
--6---6-------2--|  (X4)
--7---6---4------|
--7---4---4------|
--5-------2------|
______________________
And now your in my arms
I knew it from the start
That I'd never break your heart
If this ain't love then nothing else is
I'd do anything for just one kiss

-2------2-----2--------2----|
-3------3-----3--------3----|
-2------2-----2-----1--2--1-|
----4------4-----4--2-----2-|
----4------4-----4--2-----2-|
----2------2-----2----------|
______________________
I'd climb the highest mountain
I'd sail across the sea
for you I'd do anything
I'd plan a picnic on the moon
just for me and you (x2)

I will write you a million love songs
just to hear you sing
baby for you I'd do everything

Yeah, I'd fight superman
just to hold your hand
have to get one step closer to you

--------------2----|
--------------3----|
--6---6-------2--1-|  (X4)
--7---6---4------2-|
--7---4---4------2-|
--5-------2--------|
_____________________
ooohhh, yeahhhh
just to get one step closer to you

--------------2-----|
--------------3-----|
--6---6-------2---6-|
--7---6---4-------7-|
--7---4---4-------7-|
--5-------2-------5-|
______________________

Those tabs are the real tabs!
You can see here: http://www.youtube.com/watch?v=UQNMsh6alXg
Hope You Enjot & Good Luck :)

            
            
Suggest correction
Creating personal tab
Creating personal tab
You can edit any tab online and save it as your Personal.

You can edit, replace or remove any tab part or add personal notes – all changes will be seen only by you.

Personal tabs can be accessed anytime from any device, even offline.
Learn more »
Give kudos to tab author, rate the tab!
1 2 3 4 5
comments
print report bad tab
guest
You may want to rate the tab now too:
select rating
Wanna post a correction for this tab? Suggest correction