Oops, an error
Loading. Please wait.

Run Away With Me tab

5,329 views 1 this week
no commentswrite comment
1 2 3 4 5
3 more votes to show rating
add to favorites
×
Save as Personal and add changes to this tab that will be seen only by you. Learn more ›
×
You can save this tab as Personal to edit and correct it or add notes. All changes will be seen only by you. Learn more »
launch autoscroll
font size
0
reset
how to read this tab
guitar tuner
edit
Autoscroll
slow
fast
+/-
esc
set tempo
stop
Author
Difficulty
Capo on fret 1

Ok this is my VERY first tab, it might not be 100% correct but this is what i hear so enjoy!


Intro:

e|-----x-------x-------x-------x-|
b|-----3-------3-------3-------3-|
g|-----0-------0-------0-------0-|
d|-----0-------x-------2-------2-| x2 
a|-----2-------2-------2-------3-|
E|-----3-------x-------o-------x-|
    

Verse:

Listen to the song for strumming patterns
e|-----x--x----x---x-x-x----x-x--x-x-x-x-|
b|-----3--3----3---3-3-3----3-3--3-3-3-3-|
g|-----0--0----2---2-2-2----0-0--0-0-0-0-|
d|-----0--0----0---0-0-0----2-2--2-2-2-2-| x6
a|-----2--2----0---0-0-0----2-2--2-2-2-2-|
E|-----3--3----x---x-x-x----0-0--0-0-0-0-|


Pre Chorus:

Strum each note once then cut the note so dont let it ring      Strum this part
e|-----x-x-x-x--x-x-x-x--x-x-x-x--x-x-x-x---x-x-x-x--x-x-x-x-|--x-x-x-x
b|-----3-3-3-3--3-3-3-3--3-3-3-3--3-3-3-3---3-3-3-3--3-3-3-3-|--3-3-3-3
g|-----0-0-0-0--0-0-0-0--0-0-0-0--2-2-2-2---0-0-0-0--0-0-0-0-|--0-0-0-0
d|-----2-2-2-2--x-x-x-x--2-2-2-2--0-0-0-0---2-2-2-2--x-x-x-x-|--2-2-2-2 
a|-----3-3-3-3--2-2-2-2--2-2-2-2--0-0-0-0---3-3-3-3--2-2-2-2-|--3-3-3-3
E|-----x-x-x-x--x-x-x-x--0-0-0-0--x-x-x-x---x-x-x-x--x-x-x-x-|--x-x-x-x
play da same note till "again"
    "I dont know what happens next i havnt read the story yet.. Things will never
be the same again.."


Pre Chorus:             

Short staccato strum for each note
e|---xxxxx--------------|
b|---33333--------------|
g|---00000--------------|
d|---22222--------------|
a|---33333--------------|
E|---xxxxx--------------|
           "So she said..

Chorus:

For this bit you only need to strum da same notes as the intro but add abit more
notes in between them.

Play this 3x
after play once of all the chords in verse 1




Verse:
Same as the first verse.



Pre Chorus: 
Same as the 1st one.


Chorus:
Same as before.


Pre Chorus:
Same as before.

Ending: 
the same as the intro strum only once for each chord.
and then end with 
e|--x--|
b|--3--|
g|--0--|
d|--0--|
a|--2--|
E|--3--|



Lyrics:

So take my hand baby
And run away with me
We will drive and drive for days
Then go dancing on the beach
And you'll drift away,oh
Out into the sea
And you will ride the waves, oh
Ride them back to me, yeah , alright

I got this girl
She was oh so beautiful
So fine and so unusual
Different for anybody else i know
Shes got the long dark hair and those bright green eyes
And I can feel my heart melt evertime shes smiles, baby

CHORUS
And I don't know what happens next
I haven't read the story yet
But I do know things will never be the same again
And she said
"So take my hand baby and run away with me
we will drive and drive for days
then go dancin on the beach
and we'll drift away oh out into the sea
and you will ride the waves oh ride them back to me"

I got this girl
She was so mysterious
Had me feeling a little delirious
Calling her a Euphoria
And i was walking the zone
And she paints my picture on the utopian skyline
With the blue moons and golden stars
That glisteningly shine

CHORUS (repeat)

            
            
Suggest correction
Creating personal tab
Creating personal tab
You can edit any tab online and save it as your Personal.

You can edit, replace or remove any tab part or add personal notes – all changes will be seen only by you.

Personal tabs can be accessed anytime from any device, even offline.
Learn more »
Give kudos to tab author, rate the tab!
1 2 3 4 5
comments
print report bad tab
guest
You may want to rate the tab now too:
select rating
Wanna post a correction for this tab? Suggest correction