Oops, an error
Loading. Please wait.

Burn Us Up tab

5,751 views 1 this week
1 commentread comment
1 2 3 4 5
1 last vote to show rating
add to favorites
×
Save as Personal and add changes to this tab that will be seen only by you. Learn more ›
×
You can save this tab as Personal to edit and correct it or add notes. All changes will be seen only by you. Learn more »
launch autoscroll
font size
0
reset
how to read this tab
guitar tuner
edit
Autoscroll
slow
fast
+/-
esc
set tempo
stop
shane and shane
burn us up
capo 3

tabbed by jacob ramirez

intro

------------------------------------------|
-----3-2p0------3-2p0------3-2p0----------|
-----2---------------------2--------------|
-----2---------------------2--------------|
----------------2-------------------------|
----------------3-------------------------|

verse
         repeat 3x                    repeat 3x  then
---------3p0-------|-----2-----|-------3p0------------2----------2------|
-------0-----------|-----3-----|-----0----------------3----------2------|
------2------------|-----2-----|----2-----------------2----------3------|
---0-2-------------|-----------|-0-2-----------------------------4------|
-------------------|-----------|---------------------------------4------|
-----------------------------------------------------------------2------|


chorus          4x
--2------3----------------------------------|
--3------3-----2----------------------------|
--4------4-----2----------------------------|
--4------5-----2----------------------------|
--2------5-----0----------------------------|
---------3----------------------------------|
-------------------|------------------------|

back to verse
then chorus

solo: same chords as chorus


bridge:

'even if you don't'         'we will burn
---------------------------3------------------|
---3-----------------------3----------2-------|
---4-----------------------4----------2-------|
---4-----------------------5----------2-------|
---2-----------------------5----------0-------|
---------------------------3------------------|

thats pretty much it, its simple. you can piece it together.

            
            
Suggest correction
Creating personal tab
Creating personal tab
You can edit any tab online and save it as your Personal.

You can edit, replace or remove any tab part or add personal notes – all changes will be seen only by you.

Personal tabs can be accessed anytime from any device, even offline.
Learn more »
Give kudos to tab author, rate the tab!
1 2 3 4 5
comments
print report bad tab
1 comment total.
0 reply
craycray01 10 Aug 11, 2015 11:51 AM

didn't like this contribution

guest
You may want to rate the tab now too:
select rating
Wanna post a correction for this tab? Suggest correction