Oops, an error
Loading. Please wait.

Whose Bed Have Your Boots Been Under bass

6,612 views 3 this week
no commentswrite comment
1 2 3 4 5
x 6
add to favorites
×
Save as Personal and add changes to this tab that will be seen only by you. Learn more ›
×
You can save this tab as Personal to edit and correct it or add notes. All changes will be seen only by you. Learn more »
launch autoscroll
font size
0
reset
guitar tuner
edit
Autoscroll
slow
fast
+/-
esc
set tempo
stop
Author
Difficulty
-------------------------------------------------------------------------------
     Whose Bed Have Your Boots Been Under? - Shania Twain
-------------------------------------------------------------------------------

Tabbed by: kokuran 
e-mail: rp.no.spam@gmail.com

Tuning: EADG

This song is a simple 1-3-5-3 pattern in different keys with some minor variation.

-----------------------------------------

Whose bed have your boots been under?...
[4 bar rest]
G|---------|---------|---------|---------|---------|---------|---------|---------|
D|---------|---------|---5-8-5-|---5-8-5-|-----5---|-----5---|---------|---------|
A|---5-8-5-|---5-8-5-|-6-------|-6-------|-3-3---6-|-3-6---6-|---0-3-0-|---3-6-3-|
E|-6-------|-6-------|---------|---------|---------|---------|-1-------|-4-------|

G|---------|---------|---------|
D|---5-8-5-|---------|---------|
A|-6-------|---5-8-5-|---------|
E|---------|-6-------|-6-------|

Don't look so lonely...
G|---------|---------|---------|---------|---------|---------|---------|---------|
D|---------|---------|---0-3-0-|---0-3-0-|---------|---------|---0-3-0-|---0-3-0-|
A|---0-3-0-|---0-3-0-|-1-------|-1-------|---0-3-0-|---0-3-0-|-1-------|-1-------|
E|-1-------|-1-------|---------|---------|-1-------|-1-------|---------|---------|
I know about Lolita...
G|---------|---------|---------|---------|---------|---------|---------|---------|
D|---------|---5-8-5-|---------|---------|---------|---------|---0-3-0-|---------|
A|-----5---|-6-------|---5-8-5-|---------|---0-3-0-|---0-3-0-|-1-------|-1-------|
E|-3-6---6-|---------|-6-------|-6-6-5-3-|-1-------|-1-------|---------|---------|

Whose bed have your boots been under?...
G|---------|---------|---------|---------|---------|---------|---------|---------|
D|---------|---------|---5-8-5-|---5-8-5-|-----5---|-----5---|---------|---5---7-|
A|---------|---------|-6-------|-6-------|-3-3---6-|-3-6---6-|---0-3-0-|-6---8---|
E|---------|---------|---------|---------|---------|---------|-1-------|---------|
And whose lips have you been kissin'?...
G|---------|---------|---------|---------|---------|---------|---------|---------|
D|---------|---------|---5-8-5-|---5-8-5-|-----5---|-----5---|---------|---------|
A|---5-8-5-|---5-8-5-|-6-------|-6-------|-3-3---6-|-3-6---6-|---0-3-0-|---3-6-3-|
E|-6-------|-6-------|---------|---------|---------|---------|-1-------|-4-------|

G|---------|---------|---------|
D|---5-8-5-|---------|---------|
A|-6-------|---5-8-5-|---------|
E|---------|-6-------|-6-------|

I heard you've been sneakin'...
G|---------|---------|---------|---------|---------|---------|---------|---------|
D|---------|---------|---0-3-0-|---0-3-0-|---------|---------|---0-3-0-|---0-3-0-|
A|---0-3-0-|---0-3-0-|-1-------|-1-------|---0-3-0-|---0-3-0-|-1-------|-1-------|
E|-1-------|-1-------|---------|---------|-1-------|-1-------|---------|---------|
And I've seen you walkin'...
G|---------|---------|---------|---------|---------|---------|---------|---------|
D|---------|---5-8-5-|---------|---------|---------|---------|---0-3-0-|---------|
A|-----5---|-6-------|---5-8-5-|---------|---0-3-0-|---0-3-0-|-1-------|-1-------|
E|-3-6---6-|---------|-6-------|-6-6-5-3-|-1-------|-1-------|---------|---------|

Whose bed have your boots been under?...
G|---------|---------|---------|---------|---------|---------|---------|---------|
D|---------|---------|---5-8-5-|---5-8-5-|-----5---|-----5---|---------|---5---7-|
A|---------|---------|-6-------|-6-------|-3-3---6-|-3-6---6-|---0-3-0-|-6---8---|
E|---------|---------|---------|---------|---------|---------|-1-------|---------|
And whose lips have you been kissin'?...
G|---------|---------|---------|---------|---------|---------|---------|---------|--------|
D|---------|---------|---5-8-5-|---5-8-5-|-----5---|-----5---|---------|---------|--------|
A|---5-8-5-|---5-8-5-|-6-------|-6-------|-3-3---6-|-3-6---6-|---0-3-0-|---------|--------|
E|-6-------|-6-------|---------|---------|---------|---------|-1-------|-4-----4-|-6------|

Come on boots... (Instrumental)
[3 bar rest]
G|------|---------|---------|---------|---------|---------|---------|---------|---------|--------|
D|------|---------|---5-8-5-|---5-8-5-|---------|---------|---5-8-5-|---5-8-5-|---------|--------|
A|------|---3-4-5-|-6-------|-6-------|---5-8-5-|---5-8-5-|-6-------|-6-------|---5-8-5-|--------|
E|3-4-5-|-6-------|---------|---------|-6-------|-6-------|---------|---------|-6-------|-6-6-5-3|

So next time you're lonely...
G|---------|---------|---------|---------|---------|---------|---------|
D|---------|---5-8-5-|---------|---------|---------|---------|---------|
A|-----5---|-6-------|---5-8-5-|---------|---0-3-0-|---0-3-0-|-1-------|
E|-3-6---6-|---------|-6-------|-6-6-5-3-|-1-------|-1-------|---------|

Whose bed have your boots been under?...
[8 bar rest]
G|---------|---------|---------|---------|---------|---2---4-|
D|---------|---------|-----7---|-----7---|---------|-3---5---|
A|---0-3-0-|---0-3-0-|-5-5---8-|-5-8---8-|---2-5-2-|---------|
E|-1-------|-1-------|---------|---------|-3-------|---------|
And whose lips have you been kissin'?...
G|---------|---------|---------|---------|---------|---------|---------|---------|---------|
D|---2-5-2-|---2-5-2-|---------|---------|-----7---|-----7---|---------|---------|---0-3-0-|
A|-3-------|-3-------|---0-3-0-|---0-3-0-|-5-5---8-|-5-8---8-|---2-5-2-|---0-3-0-|-1-------|
E|---------|---------|-1-------|-1-------|---------|---------|-3-------|-1-------|---------|

Outro:
G|---------|---------|
D|---------|---------|
A|---0-3-0-|---0-3-0-|
E|-1-------|-1-------|

            
            
Suggest correction
Creating personal tab
Creating personal tab
You can edit any tab online and save it as your Personal.

You can edit, replace or remove any tab part or add personal notes – all changes will be seen only by you.

Personal tabs can be accessed anytime from any device, even offline.
Learn more »
comments
print report bad tab
guest
You may want to rate the tab now too:
select rating
Wanna post a correction for this tab? Suggest correction