Oops, an error
Loading. Please wait.

If You Call tab

version 1
version 1

Whole song

Interactive

196 views 9 this week
no commentswrite comment
1 2 3 4 5
3 more votes to show rating
add to favorites
×
Save as Personal and add changes to this tab that will be seen only by you. Learn more ›
×
You can save this tab as Personal to edit and correct it or add notes. All changes will be seen only by you. Learn more »
launch autoscroll
font size
0
reset
how to read this tab
guitar tuner
edit
Autoscroll
slow
fast
+/-
esc
set tempo
stop
Author
Difficulty
Tab by basmeyer

Title: If You Call
Artist: Sharon Jones & The Dap Kings
Tempo = 60


[Intro]

     F#                A#
e|--2--------2--2--2-----------6----------|
B|--2--------2--2--2-----------6----------|
G|--3--------3--3--3--7--------7----------|
D|--4--------4--4--4--8--------8----------|
A|--4--------4--4--4--8-------------------|
E|--2--------2--2--2--6-------------------|

  D#m
e|--6-----------------11------------------|
B|--7--------------11---------------------|
G|--8-----------11------------------------|
D|--8--------13---------------------------|
A|--6--6s-13------------------------------|
E|----------------------------------------|


[Verse 1]

  D#m
e|--6-----------------11------------------|
B|--7--------------11---------------------|
G|--8-----------11------------------------|
D|--8--------13---------------------------|
A|--6--6s-13------------------------------|
E|----------------------------------------|

  D#m
e|--6-----------------11------------------|
B|--7--------------11---------------------|
G|--8-----------11------------------------|
D|--8--------13---------------------------|
A|--6--6s-13------------------------------|
E|----------------------------------------|

  D#m
e|--6-----------------11------------------|
B|--7--------------11---------------------|
G|--8-----------11------------------------|
D|--8--------13---------------------------|
A|--6--6s-13------------------------------|
E|----------------------------------------|

  A#
e|--6-----------------10------------------|
B|--6--------------11---------------------|
G|--7-----------10------------------------|
D|--8--------12---------------------------|
A|--8--8s-13------------------------------|
E|--6-------------------------------------|

  G#m
e|--4-----------------11------------------|
B|--4--------------12---------------------|
G|--4-----------13------------------------|
D|--6--------9----------------------------|
A|--6--6s-11------------------------------|
E|--4-------------------------------------|

  D#m
e|--6-----------------11------------------|
B|--7--------------11---------------------|
G|--8-----------11------------------------|
D|--8--------13---------------------------|
A|--6--6s-13------------------------------|
E|----------------------------------------|

  F#
e|--2-----------------9-------------------|
B|--2--------------11---------------------|
G|--3-----------11------------------------|
D|--4--------8----------------------------|
A|--4--4s-9-------------------------------|
E|--2-------------------------------------|

  A#
e|--6-----------------10------------------|
B|--6--------------11---------------------|
G|--7-----------10------------------------|
D|--8--------12---------------------------|
A|--8--8s-13------------------------------|
E|--6-------------------------------------|


[Verse 2]

  D#m
e|--6-----------------11------------------|
B|--7--------------11---------------------|
G|--8-----------11------------------------|
D|--8--------13---------------------------|
A|--6--6s-13------------------------------|
E|----------------------------------------|

  D#m
e|--6-----------------11------------------|
B|--7--------------11---------------------|
G|--8-----------11------------------------|
D|--8--------13---------------------------|
A|--6--6s-13------------------------------|
E|----------------------------------------|

  D#m
e|--6-----------------11------------------|
B|--7--------------11---------------------|
G|--8-----------11------------------------|
D|--8--------13---------------------------|
A|--6--6s-13------------------------------|
E|----------------------------------------|

  A#
e|--6-----------------10------------------|
B|--6--------------11---------------------|
G|--7-----------10------------------------|
D|--8--------12---------------------------|
A|--8--8s-13------------------------------|
E|--6-------------------------------------|

  G#m
e|--4-----------------11------------------|
B|--4--------------12---------------------|
G|--4-----------13------------------------|
D|--6--------9----------------------------|
A|--6--6s-11------------------------------|
E|--4-------------------------------------|

  D#m
e|--6-----------------11------------------|
B|--7--------------11---------------------|
G|--8-----------11------------------------|
D|--8--------13---------------------------|
A|--6--6s-13------------------------------|
E|----------------------------------------|

  F#                A#
e|--2-----------------10------------------|
B|--2--------------11---------------------|
G|--3-----------11------------------------|
D|--4--------8----------------------------|
A|--4--4s-9-------------------------------|
E|--2-------------------------------------|

  D#m
e|--6-----------------11------------------|
B|--7--------------11---------------------|
G|--8-----------11------------------------|
D|--8--------13---------------------------|
A|--6--6s-13------------------------------|
E|----------------------------------------|


[Chorus]

           G#m
e|--x-----------------4L-4--4--4L-4--4----|
B|--x-----------------4L-4--4--4L-4--4----|
G|--x--------4--------4L-4--4--4L-4--4----|
D|--x--------6--------6L-6--6--6L-6--6----|
A|--x--------6--------------6--6L-6--6----|
E|--x--------4--------------4--4L-4--4----|

  D#m
e|--6-----------------11------------------|
B|--7--------------11---------------------|
G|--8-----------11------------------------|
D|--8--------13---------------------------|
A|--6--6s-13------------------------------|
E|----------------------------------------|

           G#m
e|--x-----------------4L-4--4--4L-4--4----|
B|--x-----------------4L-4--4--4L-4--4----|
G|--x--------4--------4L-4--4--4L-4--4----|
D|--x--------6--------6L-6--6--6L-6--6----|
A|--x--------6--------------6--6L-6--6----|
E|--x--------4--------------4--4L-4--4----|

  D#m
e|--6-----------------11------------------|
B|--7--------------11---------------------|
G|--8-----------11------------------------|
D|--8--------13---------------------------|
A|--6--6s-13------------------------------|
E|----------------------------------------|

           G#m
e|--x-----------------4L-4--4--4L-4--4----|
B|--x-----------------4L-4--4--4L-4--4----|
G|--x--------4--------4L-4--4--4L-4--4----|
D|--x--------6--------6L-6--6--6L-6--6----|
A|--x--------6--------------6--6L-6--6----|
E|--x--------4--------------4--4L-4--4----|

  D#m
e|--6-----------------11------------------|
B|--7--------------11---------------------|
G|--8-----------11------------------------|
D|--8--------13---------------------------|
A|--6--6s-13------------------------------|
E|----------------------------------------|

  F#
e|--2-----------------9-------------------|
B|--2--------------11---------------------|
G|--3-----------11------------------------|
D|--4--------8----------------------------|
A|--4--4s-9-------------------------------|
E|--2-------------------------------------|

  A#
e|--6-----------------10------------------|
B|--6--------------11---------------------|
G|--7-----------10------------------------|
D|--8--------12---------------------------|
A|--8--8s-13------------------------------|
E|--6-------------------------------------|


[Verse 3]

  D#m
e|--6-----------------11------------------|
B|--7--------------11---------------------|
G|--8-----------11------------------------|
D|--8--------13---------------------------|
A|--6--6s-13------------------------------|
E|----------------------------------------|

  D#m
e|--6-----------------11------------------|
B|--7--------------11---------------------|
G|--8-----------11------------------------|
D|--8--------13---------------------------|
A|--6--6s-13------------------------------|
E|----------------------------------------|

  D#m
e|--6-----------------11------------------|
B|--7--------------11---------------------|
G|--8-----------11------------------------|
D|--8--------13---------------------------|
A|--6--6s-13------------------------------|
E|----------------------------------------|

  A#
e|--6-----------------10------------------|
B|--6--------------11---------------------|
G|--7-----------10------------------------|
D|--8--------12---------------------------|
A|--8--8s-13------------------------------|
E|--6-------------------------------------|

  G#m
e|--4-----------------11------------------|
B|--4--------------12---------------------|
G|--4-----------13------------------------|
D|--6--------9----------------------------|
A|--6--6s-11------------------------------|
E|--4-------------------------------------|

  D#m
e|--6-----------------11------------------|
B|--7--------------11---------------------|
G|--8-----------11------------------------|
D|--8--------13---------------------------|
A|--6--6s-13------------------------------|
E|----------------------------------------|

  F#                A#
e|--2-----------------10------------------|
B|--2--------------11---------------------|
G|--3-----------11------------------------|
D|--4--------8----------------------------|
A|--4--4s-9-------------------------------|
E|--2-------------------------------------|

  D#m
e|--6-----------------11------------------|
B|--7--------------11---------------------|
G|--8-----------11------------------------|
D|--8--------13---------------------------|
A|--6--6s-13------------------------------|
E|----------------------------------------|

  F#                A#
e|--2-----------------10------------------|
B|--2--------------11---------------------|
G|--3-----------11------------------------|
D|--4--------8----------------------------|
A|--4--4s-9-------------------------------|
E|--2-------------------------------------|

  D#m
e|--6-----------------11------------------|
B|--7--------------11---------------------|
G|--8-----------11------------------------|
D|--8--------13---------------------------|
A|--6--6s-13------------------------------|
E|----------------------------------------|


[Outro]

  E5
e|----------------------------------------|
B|----------------------------------------|
G|--9--9--9--9--9--9----------------------|
D|--9--9--9--9--9--9----------------------|
A|--7--7--7--7--7--7----------------------|
E|----------------------------------------|

  A#
e|--6--6--6--6--6--6----------------------|
B|--6--6--6--6--6--6----------------------|
G|--7--7--7--7--7--7----------------------|
D|--8--8--8--8--8--8----------------------|
A|--8--8--8--8--8--8----------------------|
E|--6--6--6--6--6--6----------------------|

  D#m
e|--6-----------------11------------------|
B|--7--------------11---------------------|
G|--8-----------11------------------------|
D|--8--------13---------------------------|
A|--6--6s-13------------------------------|
E|----------------------------------------|

  D#m
e|--6-----------------11------------------|
B|--7--------------11---------------------|
G|--8-----------11------------------------|
D|--8--------13---------------------------|
A|--6--6s-13------------------------------|
E|----------------------------------------|

  D#m
e|--6-----------------11------------------|
B|--7--------------11---------------------|
G|--8-----------11------------------------|
D|--8--------13---------------------------|
A|--6--6s-13------------------------------|
E|----------------------------------------|



*****************
|s      Slide
*****************

            
            
Suggest correction
Creating personal tab
Creating personal tab
You can edit any tab online and save it as your Personal.

You can edit, replace or remove any tab part or add personal notes – all changes will be seen only by you.

Personal tabs can be accessed anytime from any device, even offline.
Learn more »
Give kudos to tab author, rate the tab!
1 2 3 4 5
comments
print report bad tab
guest
You may want to rate the tab now too:
select rating
Wanna post a correction for this tab? Suggest correction