Oops, an error
Loading. Please wait.

Every Time The Sun Comes Up bass

355 views 1 this week
2 commentsread comments
1 2 3 4 5
2 more votes to show rating
add to favorites
×
Save as Personal and add changes to this tab that will be seen only by you. Learn more ›
×
You can save this tab as Personal to edit and correct it or add notes. All changes will be seen only by you. Learn more »
launch autoscroll
font size
0
reset
guitar tuner
edit
Autoscroll
slow
fast
+/-
esc
set tempo
stop
Author
Difficulty
Standard Tunning (E, A, D, G)

Intro & Verse

G|--------------------------------------------------------------|
D|--------------------------------------------------------------| x3
A|-4---4-4----4--4-4--------------------------------------------|
E|-----------------------4---4-4----4--4-4----2---2-2----2--2-2-|

Chorus

G|------------------------------------------------|
D|-----6-8--6-------------------------------------| x2
A|-4---------------6-8--6------4-6--4------4-6--4-|
E|-------------4-----------2-----------2----------|

Verse

G|-------------------------------------------------------------------|
D|-----6-8--6-----6-8--6---------------------------------------------| x2
A|-4----------4--------------6-8--6-----6-8--6-----4-6--4-----4-6--4-|
E|-----------------------4----------4----------2----------2----------|

Chorus

G|------------------------------------------------|
D|-----6-8--6-------------------------------------| x2
A|-4---------------6-8--6------4-6--4------4-6--4-|
E|-------------4-----------2-----------2----------|

Solo (No bass)

Verse (2:20)

G|--------------------------------------------------------------|
D|--------------------------------------------------------------| x2
A|-4---4-4----4--4-4--------------------------------------------|
E|-----------------------4---4-4----4--4-4----2---2-2----2--2-2-|

Chorus

G|------------------------------------------------|
D|-----6-8--6-------------------------------------| x4
A|-4---------------6-8--6------4-6--4------4-6--4-|
E|-------------4-----------2-----------2----------|

Ending

G|-------------------------------------------------|
D|-------------------------------------------------|
A|-4---4-4-----------------------------------------|
E|------------4---4-4----2---2-2--2--2---2-2-2-4-6-|

G|----------------------------------------------------|
D|----------------------------------------------------|
A|-4---4-4--4-6------------4------------------------4-|
E|--------------4---4-4--6---2---2-2-----2--2-2--2----|

            
            
Suggest correction
Creating personal tab
Creating personal tab
You can edit any tab online and save it as your Personal.

You can edit, replace or remove any tab part or add personal notes – all changes will be seen only by you.

Personal tabs can be accessed anytime from any device, even offline.
Learn more »
Give kudos to tab author, rate the tab!
1 2 3 4 5
comments
print report bad tab
2 comments total.
+1 reply
happysad 1,644 May 08, 2016 11:01 AM

This bit is wrong :

G|------------------------------------------------|
D|-----6-8--6-------------------------------------| x2
A|-4---------------6-8--6------4-6--4------4-6--4-|
E|-------------5-----------3-----------3----------|

It should be instead :

G|------------------------------------------------|
D|-----6-8--6-------------------------------------| x2
A|-4---------------6-8--6------4-6--4------4-6--4-|
E|-------------4-----------2-----------2----------|

Same for :

G|-------------------------------------------------------------------|
D|-----6-8--6-----6-8--6---------------------------------------------| x2
A|-4----------4--------------6-8--6-----6-8--6-----4-6--4-----4-6--4-|
E|-----------------------5----------5----------3----------3----------|

Which sould be instead :

G|-------------------------------------------------------------------|
D|-----6-8--6-----6-8--6---------------------------------------------| x2
A|-4----------4--------------6-8--6-----6-8--6-----4-6--4-----4-6--4-|
E|-----------------------4----------4----------2----------2----------|

0 reply
Neon765 387 May 22, 2016 07:38 PM

Thanks, I was expecting a correction since my E string was rather messed up that day. I'll correct it right away.

guest
You may want to rate the tab now too:
select rating
Wanna post a correction for this tab? Suggest correction