Oops, an error
Loading. Please wait.

A Little Too Much tab

version 1
version 1

Whole song

Interactive

Video

18,901 views 204 this week
3 commentsread comments
1 2 3 4 5
x 26
add to favorites
×
Save as Personal and add changes to this tab that will be seen only by you. Learn more ›
×
You can save this tab as Personal to edit and correct it or add notes. All changes will be seen only by you. Learn more »
launch autoscroll
font size
0
reset
how to read this tab
guitar tuner
edit
Autoscroll
slow
fast
+/-
esc
set tempo
stop
-------------------------------------------------------------------------------
                             A LITTLE TOO MUCH - Shawn Mendes
-------------------------------------------------------------------------------
Tabbed by: Rachel

This is my first tab, hope you enjoy!
************************************

Tuning: Standard
Capo: 4

CHORDS:
Em7   G   Cadd9
G   D/F#   Em7   Cadd9


[Intro]

     Em7              G                  Cadd9
e|---------------------------------------------------------------------------|
B|--------3-----------------3------------------3-------3-------3-------------|
G|----0-------0---0-----0-------0---0------0-------0-------0-------0---0-----|
D|---------------------------------------------------------------------------|
A|--2---2---2---2------------------------3---3---3---3---3---3---3---3-------|
E|--------------------3---3---3---3------------------------------------------|


     Em7     G                        Cadd9
e|-----------------------------------3-----------------------------------------|
B|---3/5\3---------------3-----------3--------3--------3-------3---------------|
G|-----0---0-----0---0--------0---0-------0--------0-------0-------0---0-------|
D|-----------------------------------------------------------------------------|
A|--------------------------------------3---3----3---3---3---3---3---3---------|
E|-------------3---3---3---3---3-----------------------------------------------|


[Verse]

     Em7              G                  Cadd9
e|---------------------------------------------------------------------------|
B|--------3-----------------3------------------3-------3-------3-------------|
G|----0-------0---0-----0-------0---0------0-------0-------0-------0---0-----| x4
D|---------------------------------------------------------------------------|
A|--2---2---2---2------------------------3---3---3---3---3---3---3---3-------|
E|--------------------3---0---3---3------------------------------------------|

She would not show that she was afraid
But being and feeling alone was too much to face
Though everyone said that she was so strong
What they didn't know is that she could barely carry on


[Pre-Chorus]

     Em7     G         Cadd9
e|--------------------------------------------------------|
B|--------3--------3--------3-------3-------3-------------|
G|----0--------0--------0-------0-------0-------0---0-----| x2
D|--------------------------------------------------------|
A|--2---2-------------3---3---3---3---3---3---3---3-------|
E|-----------3---3----------------------------------------|

But she knew that she would be okay
So she didn't let it get in her way


[Chorus]

     G               D/F#                Em7               Cadd9 
e|-----------------------------------------------------------------------------|
B|--------3-----------------3------------------3-----------------3-------------|
G|----0-------0---0-----2-------2---2------0-------0---0-----0-------0---0-----| x4
D|-----------------------------------------------------------------------------|
A|---------------------------------------2---2---2---2-----3---3---3---3-------|
E|--3---3---3---3-----2---2---2---2--------------------------------------------|

Sometimes it all gets a little too much
But you gotta realize that soon the fog will clear up
And you don't have to be afraid because we're all the same
And we know that sometimes it all gets a little too much

Em7                        G                Cadd9     G
And she would always tell herself she could do this
Em7                    G                Cadd9     G
She would use no help, it would be just fine
Em7             G                        Cadd9     G
But when it got hard, she would lose her focus
Em7             G              Cadd9
So take my hand and we'll be alright

                            Em7 G Cadd9
And she knew that she would be okay
                     Em7    G   Cadd9
So she didn't let it get in her way


G               D/F#              Em7     Cadd9   
Sometimes it all gets a little too much
             G                 D/F#           Em7       Cadd9
But you gotta realize that soon the fog will clear up
                     G        D/F#           Em7             Cadd9
And you don't have to be afraid because we're all the same
                G                D/F#              Em7   Cadd9
And we know that sometimes it all gets a little too much, yeah

Em7   G   Cadd9

             Em7   G   Cadd9
A little too much
                    Em7 G Cadd9   Em7   G   Cadd9
I said a little too much,         ohhhhhh

      G        D/F#     Em7      Cadd9
e|---------------------------------------------------------------------------------|
B|----3--------3--------3--------3-------------------------------------------------|
G|----0--------2--------0--------0-------------------------------------------------| x2
D|---------------------------------------------------------------------------------|
A|----------------------2--------3-------------------------------------------------|
E|----3--------2-------------------------------------------------------------------|

Sometimes it all gets a little too much
But you gotta realize that soon the fog will clear up

     G               D/F#                Em7               Cadd9 
e|-----------------------------------------------------------------------------|
B|--------3-----------------3------------------3-----------------3-------------|
G|----0-------0---0-----2-------2---2------0-------0---0-----0-------0---0-----| x2
D|-----------------------------------------------------------------------------|
A|---------------------------------------2---2---2---2-----3---3---3---3-------|
E|--3---3---3---3-----2---2---2---2--------------------------------------------|

And you don't have to be afraid because we're all the same 
And we know that sometimes it all gets a little too much, yeah


G               D/F#              Em7     Cadd9   
Sometimes it all gets a little too much
             G                 D/F#           Em7       Cadd9
But you gotta realize that soon the fog will clear up
                     G        D/F#           Em7             Cadd9
And you don't have to be afraid because we're all the same
                G                D/F#              Em7   Cadd9          G
And we know that sometimes it all gets a little too much, yeah



************************************

| /   slide up
| \   slide down
| h   hammer-on
| p   pull-off
| ~   vibrato
| +   harmonic
| x   Mute note
| b   Bend
| pb  Pre-bend
| br  Bend release
| pbr Pre-bend release
| brb Bend release bend

************************************

            
            
Suggest correction
Creating personal tab
Creating personal tab
You can edit any tab online and save it as your Personal.

You can edit, replace or remove any tab part or add personal notes – all changes will be seen only by you.

Personal tabs can be accessed anytime from any device, even offline.
Learn more »
comments
print report bad tab
3 comments total.
+2 reply
lndandrea159 75 Jun 23, 2016 10:17 AM

Praise you for this amazing tab. Sounds just like the great song! But may I ask for a strumming pattern? Thank you!

+3 reply
rachelsasson 54 Jul 15, 2016 12:26 PM

I usually pick most of the song to that same picking pattern instead of strumming. In the recording, strumming varies and I just play what feels/sounds right.

+1 reply
rej20 10 Sep 01, 2017 03:01 PM

good job

guest
You may want to rate the tab now too:
select rating
Wanna post a correction for this tab? Suggest correction