Oops, an error
Loading. Please wait.

Why Do You Let Me Stay Here bass

version 2
version 2

Whole song

Interactive

564 views 1 this week
no commentswrite comment
1 2 3 4 5
2 more votes to show rating
add to favorites
×
Save as Personal and add changes to this tab that will be seen only by you. Learn more ›
×
You can save this tab as Personal to edit and correct it or add notes. All changes will be seen only by you. Learn more »
launch autoscroll
font size
0
reset
guitar tuner
edit
Autoscroll
slow
fast
+/-
esc
set tempo
stop
Author
++++++++++++++++++++++++++++++++++++++++++
| She & Him- Why Do You Let Me Stay Here |
++++++++++++++++++++++++++++++++++++++++++


"Im just sitting on the shelf..."

Tuning: EADG



"Im just sitting on the shelf..."
1.
G|-------------------------|
D|-------------------------|
A|-3~-3~-1~-1~-0~-0~-------|
E|-------------------4~-3~-|

Verse
"I got to get your presence..."
2.
G|-------------------------------------------------|
D|-------------------------------------------------|
A|-3~-3~-1~-1~-0~-0~-------3~-3~-1~-1~-0~-0~-------|
E|-------------------4~-3~-------------------4~-3~-|

"I think you're just so pleasant..."
3.
G|-------------------------------------|
D|-------------------------------------|
A|-3~-3~-1~-1~-------------------------|
E|-------------1~-1~-1~-1~-3~-3~-3~-3~-|

Bridge
4.
G|-------------------------------------------------|
D|-------------------------------------------------|
A|-3~-3~-1~-1~-0~-0~-------3~-3~-1~-1~-0~-0~-------|
E|-------------------4~-3~-------------------4~-3~-|

5.
G|-------------------------------------------------------------|
D|-------------------------------------------------------------|
A|-3~-3~-1~-1~-------------------------0~-0~-0~-0~-0~-0~-0~-0~-|
E|-------------1~-1~-4~-4~-3~-3~-3~-3~-------------------------|

Verse
"Why dont you sit right down..."
6.
G|-------------------------------------------------|
D|-------------------------------------------------|
A|-5~-5~-3~-3~-2~-2~-1~-0~-5~-5~-3~-3~-2~-2~-1~-0~-|
E|-------------------------------------------------|

"Why do you end it?"
7.
G|-------------------------------------------------------|
D|-------------------------------------------------------|
A|-5~-5~-3~-3~-------------------------5~----------------|
E|-------------3~-3~-3~-3~-5~-5~-5~-5~-------------------|

Outro
"Do do doo..."
8.
G|-------------------------------------------------|
D|-------------------------------------------------|
A|-5~-5~-3~-3~-2~-2~-1~-0~-5~-5~-3~-3~-2~-2~-1~-0~-|
E|-------------------------------------------------|


Please rate thanks!


Lyrics:

Why do let me stay here? 
All by myself 
Why don't you come and play here? 
I'm just sitting on the shelf 

Why don't you sit right down and stay awhile? 
We like the same things and I like your style 
Its not a secret; why do you keep it? 
I'm just sitting on the shelf 

I got to get your presence 
Let's make it known 
I think you're just so pleasant 
I would like you for my own 

Why don't you sit right down and make me smile? (uh huh) 
You make me feel like I am just a child 
Why do you end it? 
Just give me credit 
I'm just sitting on the shelf



+++++++++++++++++++++++++++++++++
| Raileff                       |
| Underground__Dora@Hotmail.Com |
+++++++++++++++++++++++++++++++++

            
            
Suggest correction
Creating personal tab
Creating personal tab
You can edit any tab online and save it as your Personal.

You can edit, replace or remove any tab part or add personal notes – all changes will be seen only by you.

Personal tabs can be accessed anytime from any device, even offline.
Learn more »
Give kudos to tab author, rate the tab!
1 2 3 4 5
comments
print report bad tab
guest
You may want to rate the tab now too:
select rating
Wanna post a correction for this tab? Suggest correction