Oops, an error
Loading. Please wait.

These Things bass

2,314 views 1 this week
no commentswrite comment
1 2 3 4 5
2 more votes to show rating
add to favorites
×
Save as Personal and add changes to this tab that will be seen only by you. Learn more ›
×
You can save this tab as Personal to edit and correct it or add notes. All changes will be seen only by you. Learn more »
launch autoscroll
font size
0
reset
guitar tuner
backing track
0:00
0:00
edit
Autoscroll
slow
fast
+/-
esc
set tempo
stop
"These Things" by She Wants Revenge

INTRO

G|--------------------------------|--------------------------------|
D|--------------------------------|--------------------------------|
A|--------------------------------|--------------------------------|
E|-1-1-1-1-1-1-1-1-1-1-1-1-1-1-1-1|-2-2-2-2-2-2-2-2-2-2-2-2-2-2-2-2|

G|--------------------------------|--------------------------------|
D|--------------------------------|--------------------------------|
A|--------------------------------|--------------------------------|
E|-0-0-0-0-0-0-0-0-0-0-0-0-0-0-0-0|-2-2-2-2-2-2-2-2-2-2-2-2-2-2-2-2|

G|--------------------------------|--------------------------------|
D|--------------------------------|--------------------------------|
A|--------------------------------|--------------------------------|
E|-1-1-1-1-1-1-1-1-1-1-1-1-1-1-1-1|-2-2-2-2-2-2-2-2-2-2-2-2-2-2-2-2|

G|--------------------------------|--------------------------------|
D|--------------------------------|--------------------------------|
A|--------------------------------|--------------------------------|
E|-0-0-0-0-0-0-0-0-0-0-0-0-0-0-0-0|-2-2-2-2-2-2-2-2-2-2-2-2-4-4-4-4|

VERSE

G|--------------------------------|--------------------------------|
D|--------------------------------|--------------------------------|
A|--------------------------------|--------------------------------|
E|-1-1-1-1-1-1-1-1-1-1-1-1-1-1-1-1|-2-2-2-2-2-2-2-2-2-2-2-2-2-2-2-2|

G|--------------------------------|--------------------------------|
D|--------------------------------|--------------------------------|
A|--------------------------------|--------------------------------|
E|-0-0-0-0-0-0-0-0-0-0-0-0-0-0-0-0|-2-2-2-2-2-2-2-2-2-2-2-2-2-2-2-2|

There is nothing to see here, people keep moving on.  
Slowly their necks turn and then they're gone.  
No one cares, when the show is done.

G|--------------------------------|--------------------------------|
D|--------------------------------|--------------------------------|
A|-1-1-1-1-1-1-1-1-1-1-1-1-1-1-1-1|--------------------------------|
E|--------------------------------|-2-2-2-2-2-2-2-2-2-2-2-2-2-2-2-2|

G|--------------------------------|--------------------------------|
D|--------------------------------|--------------------------------|
A|--------------------------------|--------------------------------|
E|-0-0-0-0-0-0-0-0-0-0-0-0-0-0-0-0|-2-2-2-2-2-2-2-2-2-2-2-2-4-4-4-4|

Standing in line and it's cold and you want to go.  
Remember a joke so you turn around.  
There is no one to listen so you laugh by yourself.

CHORUS

G|--------------------------------|--------------------------------|
D|--------------------------------|--------------------------------|
A|--------------------------------|-4-4-4-4-4-4-4-4-4-4-4-4-4-4-4-4|
E|-6-6-6-6-6-6-6-6-6-6-6-6-6-6-6-6|--------------------------------|

I heard it's cold out, but her popsicle melts.
She's in the bathroom, she pleasures herself.

G|--------------------------------|--------------------------------|
D|--------------------------------|--------------------------------|
A|-3-3-3-3-3-3-3-3-3-3-3-3-3-3-3-3|-2-2-2-2-2-2-2-2-2-2-2-2-2-2-2-2|
E|--------------------------------|--------------------------------|

Says I'm a bad man, she's locking me out.
It's 'cause of these things.  It's 'cause of these things.

G|--------------------------------|--------------------------------|
D|--------------------------------|--------------------------------|
A|--------------------------------|-4-4-4-4-4-4-4-4-4-4-4-4-4-4-4-4|
E|-6-6-6-6-6-6-6-6-6-6-6-6-6-6-6-6|--------------------------------|

Let's make a fast plan, watch it burn to the ground.
I try to whisper, so no one figures it out.

G|--------------------------------|--------------------------------|
D|--------------------------------|--------------------------------|
A|-3-3-3-3-3-3-3-3-3-3-3-3-3-3-3-3|-2-2-2-2-2-2-2-2-2-2-2-2-2-2-2-2|
E|--------------------------------|--------------------------------|

I'm not a bad man, I'm just overwhelmed.
It's 'cause of these things.  It's 'cause of these things.

INTERLUDE

G|--------------------------------|--------------------------------|
D|--------------------------------|--------------------------------|
A|-1-1-1-1-1-1-1-1-1-1-1-1-1-1-1-1|--------------------------------|
E|--------------------------------|-2-2-2-2-2-2-2-2-2-2-2-2-2-2-2-2|

G|--------------------------------|--------------------------------|
D|--------------------------------|--------------------------------|
A|--------------------------------|--------------------------------|
E|-0-0-0-0-0-0-0-0-0-0-0-0-0-0-0-0|-2-2-2-2-2-2-2-2-2-2-2-2-4-4-4-4|

VERSE

G|--------------------------------|--------------------------------|
D|--------------------------------|--------------------------------|
A|--------------------------------|--------------------------------|
E|-1-1-1-1-1-1-1-1-1-1-1-1-1-1-1-1|-2-2-2-2-2-2-2-2-2-2-2-2-2-2-2-2|

G|--------------------------------|--------------------------------|
D|--------------------------------|--------------------------------|
A|--------------------------------|--------------------------------|
E|-0-0-0-0-0-0-0-0-0-0-0-0-0-0-0-0|-2-2-2-2-2-2-2-2-2-2-2-2-2-2-2-2|

The crowd on the street walks slowly, don't mind the rain.  
Lovers hold hands to numb the pain,  
Gripping tightly to something that they will never own.

G|--------------------------------|--------------------------------|
D|--------------------------------|--------------------------------|
A|-1-1-1-1-1-1-1-1-1-1-1-1-1-1-1-1|--------------------------------|
E|--------------------------------|-2-2-2-2-2-2-2-2-2-2-2-2-2-2-2-2|

G|--------------------------------|--------------------------------|
D|--------------------------------|--------------------------------|
A|--------------------------------|--------------------------------|
E|-0-0-0-0-0-0-0-0-0-0-0-0-0-0-0-0|-2-2-2-2-2-2-2-2-2-2-2-2-4-4-4-4|

And those by themselves by choice or by some reward.  
No mistakes only, now you're bored.  
This is the time of your life but you just can't tell.

CHORUS

G|--------------------------------|--------------------------------|
D|--------------------------------|--------------------------------|
A|--------------------------------|-4-4-4-4-4-4-4-4-4-4-4-4-4-4-4-4|
E|-6-6-6-6-6-6-6-6-6-6-6-6-6-6-6-6|--------------------------------|

I heard it's cold out, but her popsicle melts.
She's in the bathroom, she pleasures herself.

G|--------------------------------|--------------------------------|
D|--------------------------------|--------------------------------|
A|--------------------------------|-4-4-4-4-4-4-4-4-4-4-4-4-4-4-4-4|
E|-6-6-6-6-6-6-6-6-6-6-6-6-6-6-6-6|--------------------------------|

Says I'm a bad man, she's locking me out.
It's 'cause of these things.  It's 'cause of these things.

G|--------------------------------|--------------------------------|
D|--------------------------------|--------------------------------|
A|--------------------------------|-4-4-4-4-4-4-4-4-4-4-4-4-4-4-4-4|
E|-6-6-6-6-6-6-6-6-6-6-6-6-6-6-6-6|--------------------------------|

Let's make a fast plan, watch it burn to the ground.
I try to whisper, so no one figures it out.

G|--------------------------------|--------------------------------|
D|--------------------------------|--------------------------------|
A|--------------------------------|-4-4-4-4-4-4-4-4-4-4-4-4-4-4-4-4|
E|-6-6-6-6-6-6-6-6-6-6-6-6-6-6-6-6|--------------------------------|

I'm not a bad man, I'm just overwhelmed.
It's 'cause of these things.  It's 'cause of these things.

OUTRO

G|--------------------------------|--------------------------------|
D|--------------------------------|--------------------------------|
A|-1-1-1-1-1-1-1-1-1-1-1-1-1-1-1-1|--------------------------------|
E|--------------------------------|-2-2-2-2-2-2-2-2-2-2-2-2-2-2-2-2|

G|--------------------------------|--------------------------------|
D|--------------------------------|--------------------------------|
A|--------------------------------|--------------------------------|
E|-0-0-0-0-0-0-0-0-0-0-0-0-0-0-0-0|-2-2-2-2-2-2-2-2-2-2-2-2-4-4-4-4|

G|--------------------------------|--------------------------------|
D|--------------------------------|--------------------------------|
A|--------------------------------|--------------------------------|
E|-1-1-1-1-1-1-1-1-1-1-1-1-1-1-1-1|-2-2-2-2-2-2-2-2-2-2-2-2-2-2-2-2|

G|--------------------------------|--------------------------------|
D|--------------------------------|--------------------------------|
A|--------------------------------|--------------------------------|
E|-0-0-0-0-0-0-0-0-0-0-0-0-0-0-0-0|-2-2-2-2-2-2-2-2-2-2-2-2-2-2-2-2|

G|--------------------------------|--------------------------------|
D|--------------------------------|--------------------------------|
A|--------------------------------|--------------------------------|
E|-1-1-1-1-1-1-1-1-1-1-1-1-1-1-1-1|-2-2-2-2-2-2-2-2-2-2-2-2-2-2-2-2|

G|--------------------------------|--------------------------------|
D|--------------------------------|--------------------------------|
A|--------------------------------|--------------------------------|
E|-0-0-0-0-0-0-0-0-0-0-0-0-0-0-0-0|-2-2-2-2-2-2-2-2-2-2-2-2-4-4-4-4|

G|--------------------------------|--------------------------------|
D|--------------------------------|--------------------------------|
A|-1-1-1-1-1-1-1-1-1-1-1-1-1-1-1-1|--------------------------------|
E|--------------------------------|-2-2-2-2-2-2-2-2-2-2-2-2-2-2-2-2|

G|--------------------------------|--------------------------------|
D|--------------------------------|--------------------------------|
A|--------------------------------|--------------------------------|
E|-0-0-0-0-0-0-0-0-0-0-0-0-0-0-0-0|-2-2-2-2-2-2-2-2-2-2-2-2-4-4-4-4|

G|--------------------------------|--------------------------------|
D|--------------------------------|--------------------------------|
A|-1-1-1-1-1-1-1-1-1-1-1-1-1-1-1-1|--------------------------------|
E|--------------------------------|-2-2-2-2-2-2-2-2-2-2-2-2-2-2-2-2|

G|--------------------------------|--------------------------------|
D|--------------------------------|--------------------------------|
A|--------------------------------|--------------------------------|
E|-0-0-0-0-0-0-0-0-0-0-0-0-0-0-0-0|-2------------------------------|

            
            
Suggest correction
Creating personal tab
Creating personal tab
You can edit any tab online and save it as your Personal.

You can edit, replace or remove any tab part or add personal notes – all changes will be seen only by you.

Personal tabs can be accessed anytime from any device, even offline.
Learn more »
Give kudos to tab author, rate the tab!
1 2 3 4 5
comments
print report bad tab
guest
Wanna post a correction for this tab? Suggest correction