Oops, an error
Loading. Please wait.

Written In Blood tab

1,941 views 1 this week
1 commentread comment
1 2 3 4 5
x 3
add to favorites
×
Save as Personal and add changes to this tab that will be seen only by you. Learn more ›
×
You can save this tab as Personal to edit and correct it or add notes. All changes will be seen only by you. Learn more »
launch autoscroll
font size
0
reset
how to read this tab
guitar tuner
edit
Autoscroll
slow
fast
+/-
esc
set tempo
stop
Author
                   ------------------------------------------------------
                             Written in blood - She wants revenge
                      ------------------------------------------------
Tabbed by:caranokol


Tuning:standard


                 (just listen to the rhythm)

Intro

e|-------|
B|-------|
G|--8----|
D|--8----|
A|--6----|
E|-------|

                   verse
e|-----------------------------------------------------------------------|
B|-----------------------------------------------------------------------|
G|--8------------11--------------8---------------------------------------|
D|--8------------11--------------8--------------9------------------------|
A|--6------------9---------------6--------------8------------------------|
E|----------------------------------------------7------------------------|


           chorus

e|-----------------------------------------------------|
B|-----------------------------------------------------|
G|--8-------------------4--------9-/-8-----------------|
D|--8-------7-----------4--------7-/-6-----------------|          
A|--6-------7-----------2------------------------------|
E|----------5------------------------------------------|


           solo

e|---------------------------------------|
B|---------------------------------------|
G|---------------------------------------|
D|----------8-8-8-8-7-7-7-7-6-6-6-6------|
A|-6-6-6-6-------------------------------|
E|---------------------------------------|

e|---------------------------------------|
B|---------------------------------------|
G|-----------8-8-8-8-7-7-7-7-6-6-6-6-----|
D|---------------------------------------|
A|-6-6-6-6-------------------------------|
E|---------------------------------------|



Blood red lips traced with a tongue they shine,
Cut theought a crowded room.
A look can say a lot sometimes
And so I take all my past attractions
And project on you.
Every dissapointment and mistake,
Some resintment from a one-night heartbreak.
My head is spinning
My hands go damp,
But still I force an introduction
And I ask you to dance.
You feel like home up aginst me so close,
Though we've just met tonight .
There's still so much that we still don't know,
But I'm fairly certain
That we just might work out right.
Then again it can all go up in flames,
And I'll take you down in the name of love.
But for now let's kiss hard,
Fuck the games.
All or nothing, it's written in blood

            --Chorus--
On the way to the wedding,
Dressed in black, she said
"Sorry lover but you can't look back."
She says
"Oh no," she goes,
"Oh no," she goes
"Slow down baby or you're gonna explode."
On the way to the wedding,
Dressed in black, he said
"Sorry lover but you can't look back."
She says
"Oh no," she goes,
"Oh no," she goes
"Slow down baby keep your eyes on the road"

Soft wet skin, hairs raised, body tired;
And the sheets are across the floor.
You tell me that love don't last,
Drawing circles with your fingernails across my back.
As your lips form the words you won't say,
In the distance your favorite song plays.
I turn you over and look in your eyes,
Promise you that this is forever
Or till one of us dies.
You taste like tear stains
And could have beens,
But I love a good train wreck.
Your hair balled up inside my fist,
You tell me don't get too attatched
Like this is just entertainment.
Then again it could go up in flames,
And I'll take you down in the name of love.
Maybe one last kiss just to ease the pain
All or nothing it's written in blood


----------------------------corrections please---------------------------------

            
            
Suggest correction
Creating personal tab
Creating personal tab
You can edit any tab online and save it as your Personal.

You can edit, replace or remove any tab part or add personal notes – all changes will be seen only by you.

Personal tabs can be accessed anytime from any device, even offline.
Learn more »
Give kudos to tab author, rate the tab!
1 2 3 4 5
comments
print report bad tab
1 comment total.
0 reply
hernandeznathan 10 Mar 30, 2009 11:35 AM

Really cool song!

guest
You may want to rate the tab now too:
select rating
Wanna post a correction for this tab? Suggest correction