Oops, an error
Loading. Please wait.

What You Want tab

1,870 views 105 this week
no commentswrite comment
1 2 3 4 5
2 more votes to show rating
add to favorites
×
Save as Personal and add changes to this tab that will be seen only by you. Learn more ›
×
You can save this tab as Personal to edit and correct it or add notes. All changes will be seen only by you. Learn more »
launch autoscroll
font size
0
reset
how to read this tab
guitar tuner
edit
Autoscroll
slow
fast
+/-
esc
set tempo
stop
Author
-------------------------------------------------------------------------------
                             What You Want - SHEER MAG
-------------------------------------------------------------------------------
Tabbed by: 7sshare

Intro
e|---------------------------------------------------------------------------|
B|---------------------------------------------------------------------------|
G|-----------------4----------------------------4-6-4~-----------------------|
D|---------2-4-4h6---6-4-2------4-2----4--2-4-6------------------------------|
A|-2-4-4--------------------4-2------4---------------------------------------|
E|---------------------------------------------------------------------------|


Pre-Verse /
Chorus
    (E)  (C#min)    (B)   (A)
e|---0-----4---4----------------------------------|
B|---0-----5---5----4-4----2--2--2--2--2-2--2-----|
G|---1-----6---6----4-4----2--2--2--2--2-2--2-----|
D|---2-----6---6----4-4----2--4--2--4--2-4--2-----|
A|---2-----4---4----2-2----0--0--0--0--0-0--0-----|
E|---0--------------------------------------------|

e|-----0-----4---4------------------------------3-----|
B|-----0-----5---5----4-4-4-4--2--2--2--2--2-2--2-----|
G|-----1-----6---6----4-4-4-4--2--2--2--2--2-2--2-----|
D|-----2-----6---6----4-4-6-4--2--4--2--4--2-4--2-----|
A|-----2-----4---4----2-2-2-2--0--0--0--0--0-0--0-----|
E|-----0----------------------------------------------|

Lead part:
e|------------------------------------------------------0------|
B|------------------12----12-12-12-12-------------------10-----|
G|--9--11-11--11/13----13-------------b11-11-9-11-----9--------|
D|-----------------------------------------------9-11----------|
A|-------------------------------------------------------------|
E|-------------------------------------------------------------|

e|----------------------------------------------------12-b14-14-12-------|
B|------------------12----b14-b14-b14-14-12--12-12-14--------------14~---|
G|--9--11-11--11/13----13------------------13----------------------------|
D|-----------------------------------------------------------------------|
A|-----------------------------------------------------------------------|
E|-----------------------------------------------------------------------|

Verse   (F#min)
e|------2-2--2-2-2-------|
B|------2-2--2-2-2-------|
G|------2-2--2-2-2-------|
D|------4-4--4-4-4-------| repeat this chord, listen to the song for the rhythm
A|------4-4--4-4-4-------|
E|------2-2--2-2-2-------|
Boy you know that I'm leavin'...

   (F#min)  (G#min)  (C#min)
e|--2--------4--------4-----------------------------------|
B|--2--------4--------5---------9--9--9-------------------|
G|--2--------4--------6---------9--9--9-------------------|
D|--4--------6--------6---------9--11-9-------------------|
A|--4--------6--------4---------7--7--7---9-x-x-x-9-9-9---|
E|--2--------4----------------------------7-x-x-x-7-7-7---|
and I'm passed out here...


Then repeat the verse part but do this at the end:

e|----------------------------------------------------|
B|----------------------------------------------------|
G|----------------------------------------------------|
D|---------------------------9-11-b11-9----9--11-9----|
A|-9-11-9-11-9-11-9-11---9-11-----------11------------|
E|-7-7--7-7--7-7--7-7----7----------------------------|

Then go back into the pre-verse / chorus, verse, pre-verse / chorus again, 
and then after that last funky A7ish chord go into the solo:

Solo
e|-0-----------------0--------------------------------------------9---------|
B|-5--7-9-7----------5--7-9-7----------------------------5-5--7b----9-9-7---|
G|--0------9-8-6-6----0-------9-8-6--9-8-6---------4-4-6--------------------|
D|--------------9-------------------9------9-7-4-6--------------------------|
A|--------------------------------------------------------------------------|
E|--------------------------------------------------------------------------|

e|-----7----------------------12--0--0---0-------0--0--12-b14-12--12---------------------------|
B|----------------------12-14-0---12-14-12-------12-14----------14---14-12h14---12-14---12-14--|
G|--b6---7-6--------9-11--------------------9-11--------------------------------------13-------|
D|-----------9~--------------------------------------------------------------------------------|
A|---------------------------------------------------------------------------------------------|
E|---------------------------------------------------------------------------------------------|

e|----------------------------------------------------------------------------14-17-14-17-19--|
B|-----------------------------------------------------------------14-17-14-17----------------|
G|--------------------------------14-16-14--------------14-16-14-16---------------------------|
D|---------------------14-16-14-16--------16-14-16-14-16--------------------------------------|
A|----------14-16-14-16-----------------------------------------------------------------------|
E|--17-14-17----------------------------------------------------------------------------------|

e|--b19-17-16-17--16---------------------|
B|--------------19--17-16-17-19----------|
G|-----------------------------16~-------|
D|---------------------------------------|
A|---------------------------------------|
E|---------------------------------------|

then you got this bridge part:
e|------------------------------------------------------|
B|------------------------------------------------------|
G|-----------------4------------------------------------| repeat this, then
D|---------2-4-4h6---6-4-2------------2-4-2--2----------|
A|-2-4-4--------------------4-2-0--2-4--------2-2--4-2--|
E|------------------------------------------------------|

e|-----------------------------------------------------------|
B|-----------------------------------------------------------|
G|-----------------4----------------------------4-6-4~-------|
D|---------2-4-4h6---6-4-2------4-2----4--2-4-6--------------|
A|-2-4-4--------------------4-2------4-----------------------|
E|-----------------------------------------------------------|

then you do the pre-verse / chorus again, with the leads.

LYRICS

boy you know that im leavin
but I just got nowhere to go
and i'm passed out here 
on the bedroom floor and you know

I still remember all the times
bitter and tender
you dont wanna deal with  me
i'm still here and I shouldnt be
i'm still here

what you want
whatta you want me to do

so indecisive like me
i can be anything that you want me to be
lock me up yeah you got the key
lock me up

how can you still deny these feelings
I cannot retire
im holding on with my fingertips
all night long on a one way trip
all night long

what you want...



************************************

| /   slide up
| \   slide down
| h   hammer-on
| ~   vibrato
| x   Mute note
| b   Bend

************************************

            
            
Suggest correction
Creating personal tab
Creating personal tab
You can edit any tab online and save it as your Personal.

You can edit, replace or remove any tab part or add personal notes – all changes will be seen only by you.

Personal tabs can be accessed anytime from any device, even offline.
Learn more »
Give kudos to tab author, rate the tab!
1 2 3 4 5
comments
print report bad tab
guest
You may want to rate the tab now too:
select rating
Wanna post a correction for this tab? Suggest correction