Oops, an error
Loading. Please wait.

For The Longest Time tab

version 1
version 1

Whole song

7,172 views 6 this week
1 commentread comment
1 2 3 4 5
x 4
add to favorites
×
Save as Personal and add changes to this tab that will be seen only by you. Learn more ›
×
You can save this tab as Personal to edit and correct it or add notes. All changes will be seen only by you. Learn more »
launch autoscroll
font size
0
reset
how to read this tab
guitar tuner
edit
Autoscroll
slow
fast
+/-
esc
set tempo
stop
-------------------------------------------------------------------------------
                             For the Longest Time - Sherwood
-------------------------------------------------------------------------------
Tabbed by: ALEX WONG
Email: alex.wong.y@hotmail.com

Tuning: standard

This is a cool song. There aren't any tabs that I could find for this song, so I'm
one up. It's pretty easy and straight forward, you should be able to learn it unless your
is claire bramel. ha. (by the way I transcribed it for one guitar, so sorry for the 
discrepancies)

INTRO: (x4)

e|---------------------------------------------------------------------------|
B|---------------------------------------------------------------------------|
G|-7-7---7-7-7---7-----------------------------------------------------------|
D|-7-7---7-7-7---7-----------------------------------------------------------|
A|-5-5---5-5-5---5-----------------------------------------------------------|
E|---------------------------------------------------------------------------|

VERSE:(x2)

e|---------------------------------------------------------------------------|
B|---------------------------------------------------------------------------|
G|-7-7---7-7-7---7---7-7----7-7-7-------4-4---4-4-4---4---4-4---4-4-4---4----|
D|-7-7---7-7-7---7---7-7----7-7-7---7---4-4---4-4-4---4---4-4---4-4-4---4----|
A|-5-5---5-5-5---5---5-5----5-5-5---7---2-2---2-2-2---2---2-2---2-2-2---2----|
E|----------------------------------5----------------------------------------|
 "Would you wait if I came running home to you..."

PRE CHORUS:

e|---------------------------------------------------------------------------|
B|---------------------------------------------------------------------------|
G|-7-7---7-7-7---7---7-7----7-7-7---7---2-2---2-2-2---2---2-2---2-2-2---2----|
D|-7-7---7-7-7---7---7-7----7-7-7---7---2-2---2-2-2---2---2-2---2-2-2---2----|
A|-5-5---5-5-5---5---5-5----5-5-5---5---0-0---0-0-0---0---0-0---0-0-0---0----|
E|---------------------------------------------------------------------------|
 "Distance is never on my side..."

e|---------------------------------------------------------------------------|
B|---------------------------------------------------------------------------|
G|---------------------------------------------------------------------------|
D|-5-5---5-5-5---5~----------------------------------------------------------|
A|-5-5---5-5-5---5~----------------------------------------------------------|
E|-3-3---3-3-3---3~----------------------------------------------------------|
 "You've moved on to someone new..."

CHORUS:

e|---------------------------------------------------------------------------|
B|---------------------------------------------------------------------------|
G|-7-7-7-7-7-7-7-7-7-7-7-7-7-7-7---------------------------------------------|
D|-7-7-7-7-7-7-7-7-7-7-7-7-7-7-7---7-7-7-7-7-7-7-7-7-7-7-7-7-7-7-7-----------|
A|-5-5-5-5-5-5-5-5-5-5-5-5-5-5-5---7-7-7-7-7-7-7-7-7-7-7-7-7-7-7-7-----------|
E|---------------------------------5-5-5-5-5-5-5-5-5-5-5-5-5-5-5-5-----------|
 "And for the longest time..."

e|---------------------------------------------------------------------------|
B|---------------------------------------------------------------------------|
G|---------------------------------------------------------------------------|
D|-9-9-9-9-9-9-9-----5-5-5-5-5-5-5-5-----------------------------------------|
A|-9-9-9-9-9-9-9-----5-5-5-5-5-5-5-5-----------------------------------------|
E|-7-7-7-7-7-7-7-----3-3-3-3-3-3-3-3-----------------------------------------|

e|---------------------------------------------------------------------------|
B|---------------------------------------------------------------------------|
G|-7-7-7-7-7-7-7-7-7-7-7-7-7-7-7---------------------------------------------|
D|-7-7-7-7-7-7-7-7-7-7-7-7-7-7-7---7-7-7-7-7-7-7-7-7-7-7-7-7-7-7-7-----------|
A|-5-5-5-5-5-5-5-5-5-5-5-5-5-5-5---7-7-7-7-7-7-7-7-7-7-7-7-7-7-7-7-----------|
E|---------------------------------5-5-5-5-5-5-5-5-5-5-5-5-5-5-5-5-----------|

e|---------------------------------------------------------------------------|
B|---------------------------------------------------------------------------|
G|---------------------------------------------------------------------------|
D|-5-5-5-5-5-5-5-5---7-7-7-7-7-7-7-7-----------------------------------------|
A|-5-5-5-5-5-5-5-5---7-7-7-7-7-7-7-7-----------------------------------------|
E|-3-3-3-3-3-3-3-3---5-5-5-5-5-5-5-5-----------------------------------------|

BREAKDOWN:(x2)

e|---------------------------------------------------------------------------|
B|---------------------------------------------------------------------------|
G|-7-7-7-7-7-7-7-7-----------------------------------------------------------|
D|-7-7-7-7-7-7-7-7---7-7-7-7-7-7-7-7---5-5-5-5-5-5-5-5---7-7-7-7-7-7-7-7-----|
A|-5-5-5-5-5-5-5-5---7-7-7-7-7-7-7-7---5-5-5-5-5-5-5-5---7-7-7-7-7-7-7-7-----|
E|-------------------5-5-5-5-5-5-5-5---3-3-3-3-3-3-3-3---5-5-5-5-5-5-5-5-----|
 "Don't pass me by..."

Repeat Chorus.

the end. hope it wasn't too terrible.

| /  slide up
| \  slide down
| h  hammer-on
| p  pull-off
| ~  vibrato
| +  harmonic
| x  Mute note
===============================================================================

            
            
Suggest correction
Creating personal tab
Creating personal tab
You can edit any tab online and save it as your Personal.

You can edit, replace or remove any tab part or add personal notes – all changes will be seen only by you.

Personal tabs can be accessed anytime from any device, even offline.
Learn more »
comments
print report bad tab
1 comment total.
0 reply
musicattic 31 Mar 04, 2008 01:16 AM

You know, this tab ir really good! but it would have been better if you completed the song, you didn't continue part of the 1st verse as well as the 2nd and the bridge. But pretty good ;]

guest
You may want to rate the tab now too:
select rating
Wanna post a correction for this tab? Suggest correction