Oops, an error
Loading. Please wait.

My Favorite Mistake bass

version 1
version 1

Whole song

Interactive

3,269 views 27 this week
1 commentread comment
1 2 3 4 5
x 3
add to favorites
×
Save as Personal and add changes to this tab that will be seen only by you. Learn more ›
×
You can save this tab as Personal to edit and correct it or add notes. All changes will be seen only by you. Learn more »
launch autoscroll
font size
0
reset
guitar tuner
backing track
0:00
0:00
edit
Autoscroll
slow
fast
+/-
esc
set tempo
stop
-------------------------------------------------------------------------------
                             My Favorite Mistake - Sheryl Crow
-------------------------------------------------------------------------------
Tabbed by: Mike Kunz
E-mail: rmjk21@embarqmail.com

  Intro
G|------------------------------------------------------|----------------------------|
D|------------------------------------------------------|-----------9----------------|
A|------------------------------------------------------|---------7------------------|
E|------------------------------------------------------|-7-7-h10--------------------|

                                           I woke up and called this morning 
G|----------------------------|----------|-------------------------------------|
D|-----------9----------------|----------|-------------------------------------|
A|---------7------------------|-5-h7-7-5-|-------------------------------------|
E|-7-7-h10--------------------|----------|-5--5-5-5-7--7-7-7-5--5-5-5-7--7-7-7-|

  That you don't care for me anymore
G|-----------------------|-------------|----------|----------------------------|
D|-----------------------|-----------9-|----------|----------------------------|
A|----------10--10-10-10-|---------7---|-5-h7-7-5-|----------------------------|
E|-8--8-8-8--------------|-7-7-h10-----|----------|-5--5-5-5-7--7-7-7-5--5-5-5-|

  Looked at the clock when you creeped in
G|--------------------------------|-------------|----------|-----------------|
D|--------------------------------|-----------9-|----------|---------2-2-----|
A|-------------------10--10-10-10-|---------7---|-5-h7-7-5-|-5-5---------3-3-|
E|-7--7-7-7-8--8-8-8--------------|-7-7-h10-----|----------|-----3-3---------|

  To the bad day
G|--------------------------------------------------|----------------------------|
D|---------2-2-------------2-2----------------------|-----------9----------------|
A|-5-5---------3-3-5-5---------3-3---------3-3-3-33-|---------7------------------|
E|-----3-3-------------3-3---------3-3-3-3----------|-7-7-h10--------------------|

                                          Now you friends are sorry for me
G|----------------------------|----------|-------------------------------------|
D|-----------9----------------|----------|-------------------------------------|
A|---------7------------------|-5-h7-7-5-|-------------------------------------|
E|-7-7-h10--------------------|----------|-5--5-5-5-7--7-7-7-5--5-5-5-7--7-7-7-|

  Well I'm no fool
G|-----------------------|-------------|----------|-------------------|
D|-----------------------|-----------9-|----------|-------------------|
A|----------10--10-10-10-|---------7---|-5-h7-7-5-|-------------------|
E|-8--8-8-8--------------|-7-7-h10-----|----------|-5--5-5-5-7--7-7-7-|

  She'll be unlike any other
G|-----------------------------------------|-------------|----------|
D|-----------------------------------------|-----------9-|----------|
A|----------------------------10--10-10-10-|---------7---|-5-h7-7-5-|
E|-5--5-5-5-7--7-7-7-8--8-8-8--------------|-7-7-h10-----|----------|

  Did you know
G|---------------------------------------------------------------------------------|
D|---------2-2-------------2-2-------------2-2-------------------------------------|
A|-5-5---------3-3-5-5---------3-3-5-5---------3-3---------3-3-3-3---------3-3-3-3-|
E|-----3-3-------------3-3-------------3-3---------3-3-3-3---------3-3-3-3---------|

  Well maybe 
G|-----------------------------------------------------------------------|
D|-----------------------------------------------------------------------|
A|-2-2-2-2---------8-8-8-8-10-10-10-10-----------------8-8-8-8-7-7-7-7-7-|
E|---------6-6-6-6---------------------7-7-7-7-6-6-6-6-------------------|

  ( Interlude )
G|-----------------------------------------------------------------|
D|---------2-2-------------2-2-------------2-2---------------------|
A|-5-5---------3-3-5-5---------3-3-5-5---------3-3---------3-3-3-3-|
E|-----3-3-------------3-3-------------3-3---------3-3-3-3---------|

  Did you know
G|-----------------------------------------------------------------|
D|---------2-2-------------2-2-------------2-2---------------------|
A|-5-5---------3-3-5-5---------3-3-5-5---------3-3---------3-3-3-3-|
E|-----3-3-------------3-3-------------3-3---------3-3-3-3---------|


 Did you see me walking by
G|-----------------------------------------------------------------|
D|---------2-2-------------2-2-------------2-2---------------------|
A|-5-5---------3-3-5-5---------3-3-5-5---------3-3---------3-3-3-3-|
E|-----3-3-------------3-3-------------3-3---------3-3-3-3---------|

 Outro
  You're my favorite mistake
G|------------------------------------|
D|------------------------------------|
A|---------3-3-3-3---------3-3-3-3--2-|
E|-3-3-3-3---------3-3-3-3------------|

            
            
Suggest correction
Creating personal tab
Creating personal tab
You can edit any tab online and save it as your Personal.

You can edit, replace or remove any tab part or add personal notes – all changes will be seen only by you.

Personal tabs can be accessed anytime from any device, even offline.
Learn more »
Give kudos to tab author, rate the tab!
1 2 3 4 5
comments
print report bad tab
1 comment total.
0 reply
fflzn1987 10 Feb 03, 2014 05:39 AM

missing a few fills but awesome tab

guest
You may want to rate the tab now too:
select rating
Wanna post a correction for this tab? Suggest correction