Oops, an error
Loading. Please wait.

Mihiraviye tab

169 views 3 this week
no commentswrite comment
1 2 3 4 5
2 more votes to show rating
add to favorites
×
Save as Personal and add changes to this tab that will be seen only by you. Learn more ›
×
You can save this tab as Personal to edit and correct it or add notes. All changes will be seen only by you. Learn more »
launch autoscroll
font size
0
reset
how to read this tab
guitar tuner
edit
Autoscroll
slow
fast
+/-
esc
set tempo
stop
Author
Difficulty
About this tab version
I have tabbed the whole complete song here, even the licks between lyrics, and the chords are here so it can be played by two person. Was this info helpful? Yes No
-------------------------------------------------------------------------------
                             Mihiraviye - Shihan Mihiranga
-------------------------------------------------------------------------------

Tabbed by: Laviru K. (Paris)
if there are any mistakes please mention it in the comments :D
Listen to the song : https://www.youtube.com/watch?v=8cdhQRiVnP4
Play this song in Duet (One playing chords & the other playing leads)


[Intro Riff/Lead Part]

  A                                  A7                D
e|---------------------|------------|---------------------|
B|---------------------|------------|---------------------|
G|-----6-7-9---7---6---|-----6-7-9--|-----6-7-9--6--------|
D|--7-----------------9|--7---------|--7------------7--4--|
A|---------------------|------------|---------------------|
E|---------------------|------------|---------------------|

  E                         E7                A
e|-----------|-------------|-----------------|----------------|
B|-----------|-------------|-----------------|----------------|
G|-----------|----------7--|--7/9-6----------|----------------|
D|----4-7-6--|-----6-9-----|---------9-7-----|----------------|
A|-5---------|--7----------|-----------------|--7-9-7---------|
E|-----------|-------------|-----------------|---------9-7-5--|


[Verse 1]

A
Sihinaye paawela awith
e|--0-2-0-------------|
B|--------------------|
G|--------------------|
D|--------------------|
A|--------------------|
E|--------------------|

      A7           D 
Ma lagin setha puna
e|--------9--10-------|
B|-11/12--------------|
G|--------------------|
D|--------------------|
A|--------------------|
E|--------------------|

Bm              E  
Ma hade pem katha pothe
e|--3/4-3-2-----------|
B|--------------------|
G|--------------------|
D|--------------------|
A|--------------------|
E|--------------------|

D      E    A 
Kathawak liyauna..
e|-0-2-0--------------|
B|-------2-0----------|
G|------------2-------|
D|--------------------|
A|--------------------|
E|--------------------|

A
Seethale gathata lan wela
e|--0-2-0-------------|
B|--------------------|
G|--------------------|
D|--------------------|
A|--------------------|
E|--------------------|

        A7         D
Rahasakuth kondurala
e|--------9--10-------|
B|-11/12--------------|
G|--------------------|
D|--------------------|
A|--------------------|
E|--------------------|


Bm              E
Adaraye suvaya maa sadaa
e|--3/4-3-2-----------|
B|--------------------|
G|--------------------|
D|--------------------|
A|--------------------|
E|--------------------|

D     E7    A
Sihinayen vindaa


[Chorus]

A                          A7
Mihiraviyee.. sihina kumari
         D              Bm 
Mage adare.. obai kumari
          E             E7   
Maa jeewithe sada sihine
         A
Mihiraviye..

  A                                  A7                D
e|---------------------|------------|---------------------|
B|---------------------|------------|---------------------|
G|-----6-7-9---7---6---|-----6-7-9--|-----6-7-9--6--------|
D|--7-----------------9|--7---------|--7------------7--4--|
A|---------------------|------------|---------------------|
E|---------------------|------------|---------------------|
          E                    E7                      A
e|-----------|----------------|---------0-4-6b7-0-----|------------------------|
B|-----------|----------------|--0-2-3----------------|-0-2-0------------------|
G|-----------|---------6------|-----------------------|--------2-1-------------|
D|----4-7-6--|----6--9----9---|-----------------------|-------------4-2--------|
A|-5---------|--7-------------|-----------------------|-----------------4-2-0--|
E|-----------|----------------|-----------------------|------------------------|


[Verse 2]

A 
Samanallu reene awith
e|--0-2-0-------------|
B|--------------------|
G|--------------------|
D|--------------------|
A|--------------------|
E|--------------------|

       A7           D
Sihinayama heda kaala
e|--------9--10-------|
B|-11/12--------------|
G|--------------------|
D|--------------------|
A|--------------------|
E|--------------------|

Bm             E
Adaren kii katha asaa
e|--3/4-3-2-----------|
B|--------------------|
G|--------------------|
D|--------------------|
A|--------------------|
E|--------------------|

D      E        A 
Api wata piyabuwaa
e|-0-2-0--------------|
B|-------2-0----------|
G|------------2-------|
D|--------------------|
A|--------------------|
E|--------------------|

A
Pem suwe mihiri aadare
e|--0-2-0-------------|
B|--------------------|
G|--------------------|
D|--------------------|
A|--------------------|
E|--------------------|

     A7        D
Api ekka windala
e|--------9--10-------|
B|-11/12--------------|
G|--------------------|
D|--------------------|
A|--------------------|
E|--------------------|

Bm             E
Samanallu mal ron soyaa
e|--3/4-3-2-----------|
B|--------------------|
G|--------------------|
D|--------------------|
A|--------------------|
E|--------------------|

D       E7        A 
Piyambala dura giyaa


[Chorus]

A                          A7
Mihiraviyee.. sihina kumari
         D              Bm 
Mage adare.. obai kumari
          E             E7   
Maa jeewithe sada sihine
         A
Mihiraviye..

  A                                  A7                D
e|---------------------|------------|---------------------|
B|---------------------|------------|---------------------|
G|-----6-7-9---7---6---|-----6-7-9--|-----6-7-9--6--------|
D|--7-----------------9|--7---------|--7------------7--4--|
A|---------------------|------------|---------------------|
E|---------------------|------------|---------------------|
          E                    E7                      A
e|-----------|----------------|---------0-4-6b7-0-----|------------------------|
B|-----------|----------------|--0-2-3----------------|-0-2-0------------------|
G|-----------|---------6------|-----------------------|--------2-1-------------|
D|----4-7-6--|----6--9----9---|-----------------------|-------------4-2--------|
A|-5---------|--7-------------|-----------------------|-----------------4-2-0--|
E|-----------|----------------|-----------------------|------------------------|


[Verse 3]

A
Sihinayen awadi wii ithin
e|--0-2-0-------------|
B|--------------------|
G|--------------------|
D|--------------------|
A|--------------------|
E|--------------------|

     A7       D
Maa obawa sewwa
e|--------9--10-------|
B|-11/12--------------|
G|--------------------|
D|--------------------|
A|--------------------|
E|--------------------|

Bm              E
Oba sitiye naa maa lagain
e|--3/4-3-2-----------|
B|--------------------|
G|--------------------|
D|--------------------|
A|--------------------|
E|--------------------|

D     E          A 
Aaye maa thaniwela
e|-0-2-0--------------|
B|-------2-0----------|
G|------------2-------|
D|--------------------|
A|--------------------|
E|--------------------|

A
Samanallu rene obath
e|--0-2-0-------------|
B|--------------------|
G|--------------------|
D|--------------------|
A|--------------------|
E|--------------------|

     A7         D
Piyabala giyaa doo
e|--------9--10-------|
B|-11/12--------------|
G|--------------------|
D|--------------------|
A|--------------------|
E|--------------------|

Bm
Aayemath enne maa soya
e|--3/4-3-2-----------|
B|--------------------|
G|--------------------|
D|--------------------|
A|--------------------|
E|--------------------|

D      E7         A
Sihinayen witharadoo


[Chorus]

A                          A7
Mihiraviyee.. sihina kumari
         D              Bm 
Mage adare.. obai kumari
          E             E7   
Maa jeewithe sada sihine
         A
Mihiraviye..

A                          A7
Mihiraviyee.. sihina kumari
         D              Bm 
Mage adare.. obai kumari
          E             E7   
Maa jeewithe sada sihine
         A
Mihiraviye..


[Ending]

  A                        G               D                    A                     G   D  A
e|--------5---9-|-5-5-5-7-5-3-----|--3-3-3-5-2h3p2-----|--------------|-----5-9-------7---5--5--|
B|--/5-7--------|--------------3--|-----------------3--|-3-3-3-5-3-2--|--5------------8---7--5--|
G|--------------|-----------------|--------------------|--------------|---------------7---7--6--|
D|--------------|-----------------|--------------------|--------------|-------------------------|
A|--------------|-----------------|--------------------|--------------|-------------------------|
E|--------------|-----------------|--------------------|--------------|-------------------------|


************************************

| /   slide up
| h   hammer-on
| p   pull-off
| b   Bend

************************************

            
            
Suggest correction
Creating personal tab
Creating personal tab
You can edit any tab online and save it as your Personal.

You can edit, replace or remove any tab part or add personal notes – all changes will be seen only by you.

Personal tabs can be accessed anytime from any device, even offline.
Learn more »
Give kudos to tab author, rate the tab!
1 2 3 4 5
comments
print report bad tab
guest
You may want to rate the tab now too:
select rating
Wanna post a correction for this tab? Suggest correction