Oops, an error
Loading. Please wait.
We have an official 45 tab made by UG professional guitarists. Check out the tab »
×
2,485 views 6 this week
1 commentread comment
1 2 3 4 5
1 last vote to show rating
add to favorites
×
Save as Personal and add changes to this tab that will be seen only by you. Learn more ›
×
You can save this tab as Personal to edit and correct it or add notes. All changes will be seen only by you. Learn more »
launch autoscroll
font size
0
reset
guitar tuner
backing track
0:00
0:00
edit
Autoscroll
slow
fast
+/-
esc
set tempo
stop
#----------------------------------PLEASE NOTE---------------------------------#
#This file is the author's own work and represents their interpretation of the #
#song. You may only use this file for private study, scholarship, or research. #
#------------------------------------------------------------------------------#

45 (Bassline)
As recorded by Shinedown
(From the 2003 Album LEAVE A WHISPER)

Transcribed by Adam Dyer
	

Words by Brent Smith Music by Brent Smith & Tony Battaglia
Arranged by Brent Smith & Tony Battaglia

Gtr I (E A D G) - 'Untitled'

 Intro
  Q.=50
 12/8
  Gtr I
  H.      H.        H.      +H.
|-----------------|----------------||
|-----------------|----------------||
|-----------------|-3-------(3)----||
|-----------------|----------------||


   Verse
    Q.   Q.   H.        Q.   Q.   Q.   Q.    3x
||--------------------|----------------------||
||o-------------------|---------------------o||
||o-------------------|-3----3----3----3----o||
||--0----2----3-------|----------------------||


 Pre-Chorus
  H.      Q.   E E E   H.      Q.   +E  E E
|--------------------|----------------------|
|---------5----7-5-4-|----------------------|
|--------------------|-7-------7----(7)-5---|
|-5------------------|--------------------5-|


                             PM------|
  Q.   +E  +E  E H.        E E E E E E e e e e E E
|------------------------|-------------------------||
|------------------------|-------------------------||
|------------------------|-------------------------||
|-5----(5)-(5)-5-5-------|-3-3-3-3-3-3-2-2-2-2-3-2-||


 Chorus
  Q.   +E  +E  E H.        Q.   +E  +E  E Q.   E E E
|------------------------|---------------------------|
|------------------------|---------------------------|
|----------------5-------|-3----(3)-(3)-3-3----3-----|
|-0----(0)-(0)-3---------|-----------------------3-2-|


  Q.   +E  E E H.        Q.   +E  +E  E H.
|----------------------|----------------------||
|----------------------|----------------------||
|--------------5-------|-3----(3)-(3)-3-------||
|-0----(0)-3-5---------|----------------5-----||


 Verse
  H.      H.        H.      +H.
|-----------------|----------------|
|-----------------|----------------|
|-----------------|-3-------(3)----|
|-----------------|----------------|


    Q.   Q.   H.        Q.   Q.   Q.   Q.    3x
||--------------------|----------------------||
||o-------------------|---------------------o||
||o-------------------|-3----3----3----3----o||
||--0----2----3-------|----------------------||


 Pre-Chorus
  H.      Q.   E E E   H.      Q.   +E  E E
|--------------------|----------------------|
|---------5----7-5-4-|----------------------|
|--------------------|-7-------7----(7)-5---|
|-5------------------|--------------------5-|


                             PM------|
  Q.   +E  +E  E H.        E E E E E E S S S S S S E E E
|------------------------|--------------------------------||
|------------------------|--------------------------------||
|------------------------|--------------------------------||
|-5----(5)-(5)-5-5-------|-3-3-3-3-3-3-2-2-2-2-2-2-2-3-2--||


 Chorus
  Q.   +E  +E  E H.        Q.   +E  +E  E Q.   E E E
|------------------------|---------------------------|
|------------------------|---------------------------|
|----------------5-------|-3----(3)-(3)-3-3----3-----|
|-0----(0)-(0)-3---------|-----------------------3-2-|


  Q.   +E  E E H.        Q.   +E  +E  E H.
|----------------------|----------------------||
|----------------------|----------------------||
|--------------5-------|-3----(3)-(3)-3-------||
|-0----(0)-3-5---------|----------------5-----||


 Breakdown
                                                   PM|
  S S s S Q.   E H.        S S s S Q.   E Q.   +E  E E
|------------------------|-----------------------------|
|------------------------|-----------------------------|
|-3-3-3--------3-2-------|-3-3-3--------3-2----(2)-3-2-|
|------------------------|-----------------------------|


  S S s S S S S S S S E H.
|-----------------------------||
|-----------------------------||
|-3-3-3---x-x-x-x-x-x-3-2-----||
|-----------------------------||


 Bridge
  Q.   Q.   Q.   Q.     Q.   Q.   S S s S E E E E
|---------------------|---------------------------||
|---------------------|---------------------------||
|----------------3----|-----------3-3-3-----------||
|-0----2----3---------|-0----2----------------3-2-||


 Chorus
  Q.   +E  +E  E H.        Q.   +E  +E  E Q.   E E E
|------------------------|---------------------------|
|------------------------|---------------------------|
|----------------5-------|-3----(3)-(3)-3-3----3-----|
|-0----(0)-(0)-3---------|---------------------------|


  Q.   +E  E E H.        Q.   +E  +E  E H.
|----------------------|----------------------||
|----------------------|----------------------||
|--------------5-------|-3----(3)-(3)-3-------||
|-0----(0)-3-5---------|----------------5-----||


 Out-Chorus
  Q.   Q.   Q.   Q.     Q.   Q.   Q.   E E E
|---------------------|----------------------|
|----------------0----|------0---------------|
|---------------------|-3--------------------|
|-0----2----3---------|-----------0----2-3-2-|


  Q.   Q.   Q.   Q.     Q.   Q.   Q.   +E  E E
|---------------------|------------------------|
|----------------0----|------0-----------------|
|---------------------|-3----------------------|
|-0----2----3---------|-----------0----(0)-3-2-|


  Q.   Q.   Q.   Q.     Q.   Q.   Q.   E E E
|---------------------|----------------------|
|----------------0----|------0---------------|
|---------------------|-3--------------------|
|-0----2----3---------|-----------0----2-3-2-|


  Q.   Q.   Q.   Q.     Q.   Q.   H.
|---------------------|-----------------*|
|----------------0----|------0----------*|
|---------------------|-3---------------*|
|-0----2----3---------|-----------0-----*|



Duration Legend
---------------
W - whole; H - half; Q - quarter; E - 8th; S - 16th; T - 32nd; X - 64th; a - acciaccatura
+ - note tied to previous; . - note dotted; .. - note double dotted
Uncapitalized letters represent notes that are staccato (1/2 duration)
Irregular groupings are notated above the duration line
Duration letters will always appear directly above the note/fret number it represents the
duration for.  Duration letters with no fret number below them represent rests.  Multi-
bar rests are notated in the form Wxn, where n is the number of bars to rest for.  Low
melody durations appear below the staff

Tablature Legend
----------------
 h   - hammer-on
 p   - pull-off
 b   - bend
 pb  - pre-bend
 r   - bend release (if no number after the r, then release immediately)
 /\  - slide into or out of (from/to "nowhere")
 s   - legato slide
 S   - shift slide
 - natural harmonic
[n]  - artificial harmonic
n(n) - tapped harmonic
 ~   - vibrato
 tr  - trill
 T   - tap
 TP  - trem. picking
 PM  - palm muting
\n/  - tremolo bar dip; n = amount to dip
 \n  - tremolo bar down
 n/  - tremolo bar up
/n\  - tremolo bar inverted dip
 =   - hold bend; also acts as connecting device for hammers/pulls
 <> - volume swell (louder/softer)
 x   - on rhythm slash represents muted slash
 o   - on rhythm slash represents single note slash

Misc Legend
-----------
 |  - bar
||  - double bar
||o - repeat start
o|| - repeat end
*|  - double bar (ending)
 :  - bar (freetime)
 $  - Segno
 &  - Coda
Tempo markers -  = BPM(8/16=s8/s16), where s8 = swing 8ths, s16 = swing 16ths


            
            
Suggest correction
Creating personal tab
Creating personal tab
You can edit any tab online and save it as your Personal.

You can edit, replace or remove any tab part or add personal notes – all changes will be seen only by you.

Personal tabs can be accessed anytime from any device, even offline.
Learn more »
Give kudos to tab author, rate the tab!
1 2 3 4 5
comments
print report bad tab
1 comment total.
0 reply
wesselrockt 194 Jun 22, 2012 08:05 AM

good word man!

guest
You may want to rate the tab now too:
select rating
Wanna post a correction for this tab? Suggest correction