Oops, an error
Loading. Please wait.
We have an official Cut The Cord tab made by UG professional guitarists. Check out the tab »
×
5,449 views 36 this week
2 commentsread comments
1 2 3 4 5
x 9
add to favorites
×
Save as Personal and add changes to this tab that will be seen only by you. Learn more ›
×
You can save this tab as Personal to edit and correct it or add notes. All changes will be seen only by you. Learn more »
launch autoscroll
font size
0
reset
how to read this tab
guitar tuner
backing track
0:00
0:00
edit
Autoscroll
slow
fast
+/-
esc
set tempo
stop
-------------------------------------------------------------------------------
                             CUT THE CORD - Shinedown
-------------------------------------------------------------------------------
Tabbed by: Zestybasilpizza
E-mail: Zestybasilpizza@gmail.com

This is the way Zach Myers (the guitarist from Shinedown) says to play it. 
Here's the video: https://www.youtube.com/watch?v=qUpYYJDcVPY

Tuning: Drop D (DADGBe)
Intro/ Verse (Repeats until Prechorus)
e|---------------------------------------------------------------------------|
B|---------------------------------------------------------------------------|
G|---------------------------------------------------------------------------|
D|---------------------------------------------------------------------------|
A|----8-----------8---------8---------8------8-----------8-----------8-------|
E|-0----0---0-0-0---0-0-0-0---0-0-0-0----0-0---0---0-0-0---0---0-0-0---0-0-5b|

Prechorus
e|---------------------------------------------------------------------------|
B|---------------------------------------------------------------------------|
G|---------------------------------------------------------------------------|
D|---------------------------------------------------------------------------|
A|---------------------------------------------------------------------------|
E|---8-(x8)---5-(x8)---0-(x16)---8-(x8)---5-(x8)---10-(x8)--(bend at the end)|
     *        *        *         *        *        *     
Chorus
e|---------------------------------------------------------------------------|
B|---------------------------------------------------------------------------|
G|---------------------------------------------------------------------------|
D|---------------------------------------------------------------------------|
A|---------3--------------------8-8\5-5-5-5-5-5------------------------------|
E|---0-3h5---5-3-5-3r0----0-3r0----------------------------------------------|

e|---------------------------------------------------------------------------|
B|---------------------------------------------------------------------------|
G|---------------------------------------------------------------------------|
D|---------------------------------------------------------------------------|
A|---------3--------------8-8-8-8-8\5-5--5-5-3h5-5-5-3r0---------------------|
E|---0-3h5---5-3-5-3r0-----------------------------------5r3-----------------|

e|---------------------2-----------------------------------------------------|
B|-----------8---------3-----------------------------------------------------|
G|--3--------7---------2-(x8)---5--------3--------5--------------------------|
D|--3--------5------------------5--------3--------5--------------------------|
A|--1--------5------------------3--------1--------3--------------------------|
E|--1-(x8)---5-(x8)-------------3-(x8)---1-(x8)---3--------------------------|
Bridge
e|---------------------------------------------------------------------------|
B|---------------------------------------------------------------------------|
G|---------------------------------------------------------------------------|
D|---------------------------------------------------------------------------|
A|--------3h4h5-5-------3h4h5------------3h4h5----------3h4h5----------------|
E|---5b-0----------5b-0-------0---5-5b-0-------3-5-5b-0-------0--------------|

e|---------------------------------------------------------------------------|
B|---------------------------------------------------------------------------|
G|---------------------------------------------------------------------------|
D|---------------------------------------------------------------------------|
A|---------------------------------------------------------------------------|
E|---5-(x5)---8-(x3)---10-(x8)-----------------------------------------------|

Bridge plays twice, the goes to prechorus. 
After the final chorus, play the verse riff until the end of the song. 


************************************

| /   slide up
| \   slide down
| h   hammer-on
| p   pull-off
| ~   vibrato
| +   harmonic
| *   Mute note
| b   Bend
| pb  Pre-bend
| br  Bend release
| pbr Pre-bend release
| brb Bend release bend

************************************

            
            
Suggest correction
Creating personal tab
Creating personal tab
You can edit any tab online and save it as your Personal.

You can edit, replace or remove any tab part or add personal notes – all changes will be seen only by you.

Personal tabs can be accessed anytime from any device, even offline.
Learn more »
comments
print report bad tab
2 comments total. show 1 bad comment
+1 reply
pimark69 54 Dec 19, 2015 03:24 PM

Yeah, nice tab. Just watch the video with this this tab. Surprisingly simple but so heavy sounding.

guest
You may want to rate the tab now too:
select rating
Wanna post a correction for this tab? Suggest correction