Oops, an error
Loading. Please wait.

Devour tab

version 3
version 3

Interactive

23,768 views 3 this week
3 commentsread comments
1 2 3 4 5
x 13
add to favorites
×
Save as Personal and add changes to this tab that will be seen only by you. Learn more ›
×
You can save this tab as Personal to edit and correct it or add notes. All changes will be seen only by you. Learn more »
launch autoscroll
font size
0
reset
how to read this tab
guitar tuner
backing track
0:00
0:00
edit
Autoscroll
slow
fast
+/-
esc
set tempo
stop
Well here it is! this tab is about 97% accurate. the only thing i couldn't quite get 
was the bridge.
it may be off a little but still sounds nice. enjoy! :)

Drop c tuning
1-D
2-A
3-F
4-C
5-G
6-C

INTRO
|--------------------------------------------------|
|--------------------------------------------------|
|--9--9--7--9--9--7--9--9--7--9--9--7--9--9--7--7--|  x10
|--------------------------------------------------|
|--------------------------------------------------|
|--------------------------------------------------|

VERSE
|--------------------------------------------------|
|--------------------------------------------------|
|--------------------------------------------------|
|--------------------------------------------------| x3
|--5--7--7--5--7--7--5--7--7--5--7--7--5--5--5--5--|
|--------------------------------------------------|

|-----------------------|
|-----------------------|
|--9--10--9--12--9--10--|
|--9--10--9--12--9--10--|
|--7--8---7--10--7--8---|
|-----------------------|

|--------------------------------------------------|
|--------------------------------------------------|
|--------------------------------------------------|
|--------------------------------------------------| x3
|--5--7--7--5--7--7--5--7--7--5--7--7--5--5--5--5--|
|--------------------------------------------------|

|-----------------------|
|-----------------------|
|--9--10--9--12--9--9---|
|--9--10--9--12--9--9---|
|--7--8---7--10--7--7---|
|-----------------------|

CHORUS
|-----------------------------------------|
|-----------------------------------------|
|--10--5--7--7--7--9--9--10--10--9--7--5--| play each power chord x16
|--10--5--7-------------------------------|
|--8---3--5--5--5--7--7--8---8---7--5--3--|
|-----------------------------------------|

|--------------------------------------------|
|--------------------------------------------|
|--10--5--7--7--7--9--9--10--10--12--14--17--|
|--10--5--7----------------------------------|
|--8---3--5--5--5--7--7--8---8---10--12--15--|
|--------------------------------------------|

|----------------------------------------------------|
|----------------------------------------------------|
|--9--9--7--9--9--7--9--9--7--9--9--7--9--9--10--10--|  x2
|----------------------------------------------------|
|----------------------------------------------------|
|----------------------------------------------------|

VERSE 2
|--------------------------------------------------|
|--------------------------------------------------|
|--------------------------------------------------|
|--------------------------------------------------|
|--5--7--7--5--7--7--5--7--7--5--7--7--5--5--5--5--|
|--------------------------------------------------|

|-----------------------|
|-----------------------|
|--9--10--9--12--9--10--|
|--9--10--9--12--9--10--|
|--7--8---7--10--7--8---|
|-----------------------|

|--------------------------------------------------|
|--------------------------------------------------|
|--------------------------------------------------|
|--------------------------------------------------|
|--5--7--7--5--7--7--5--7--7--5--7--7--5--5--5--5--|
|--------------------------------------------------|

|-----------------------|
|-----------------------|
|--9--10--9--12--9--9---|
|--9--10--9--12--9--9---|
|--7--8---7--10--7--7---|
|-----------------------|

CHORUS
|-----------------------------------------|
|-----------------------------------------|
|--10--5--7--7--7--9--9--10--10--9--7--5--|
|--10--5--7-------------------------------|
|--8---3--5--5--5--7--7--8---8---7--5--3--|
|-----------------------------------------|

|--------------------------------------------|
|--------------------------------------------|
|--10--5--7--7--7--9--9--10--10--12--14--17--|
|--10--5--7----------------------------------|
|--8---3--5--5--5--7--7--8---8---10--12--15--|
|--------------------------------------------|

|----------------------------------|
|----------------------------------|
|--7--7--9--9--10--10--12--14--17--|
|----------------------------------|  x3
|--5--5--7--7--8---8---10--12--15--|
|----------------------------------|

BRIDGE
|--------------------------------------------------------------------------|
|--------------------------------------------------------------------------|
|--------------------------------------------------------------------------|
|--------------------------------------------------------------------------|
|--------------------------------------------------------------------------|
|--3--0--0--0--0--0--0--0--2--0--0--0--0--0--0--0--1--0--0--0--0--0--0--0--|

|--------------------------|
|--------------------------|
|--5--5--5--5--5--5--5--5--|    all of this x5
|--5--5--5--5--5--5--5--5--|   (on fifth time, leave out everything after
|--3--3--3--3--3--3--3--3--|    the last 1)
|--------------------------|

CHORUS
|-----------------------------------------      |
|-----------------------------------------      |
|--10--5--7--7--7--9--9--10--10--9--7--5--      |
|--10--5--7-------------------------------      |
|--8---3--5--5--5--7--7--8---8---7--5--3--      |
|-----------------------------------------      |
                                                | x2
|-----------------------------------------      |
|-----------------------------------------      |
|--10--5--7--7--7--9--9--10--10--9--7--5--      |
|--10--5--7-------------------------------      |
|--8---3--5--5--5--7--7--8---8---7--5--3--      |
|-----------------------------------------      |
              *on 2nd time substitute this for
               this |
                    V
|----------------------------------|
|----------------------------------|
|--7--7--9--9--10--10--12--14--17--|
|----------------------------------|  x4
|--5--5--7--7--8---8---10--12--15--|
|----------------------------------|

            
            
Suggest correction
Creating personal tab
Creating personal tab
You can edit any tab online and save it as your Personal.

You can edit, replace or remove any tab part or add personal notes – all changes will be seen only by you.

Personal tabs can be accessed anytime from any device, even offline.
Learn more »
comments
print report bad tab
3 comments total.
+1 reply
GibsonRocker14 30 Jul 23, 2008 12:28 PM

great tab. best tab on this song so far.

i think the bridge may be chords instead of single notes.

other than that good tab!

btw, w00t first to comment and rate!

0 reply
EvilConsrvativ 51 Aug 15, 2008 07:04 PM

on the chorus it should be an octave lower than what you have posted... and you missed the lead during the chorus but other than that pretty decent

0 reply
incubosity 1,595 Sep 01, 2008 07:56 AM

no no no....he plays the verses/pull offs on the low E string.....how could you miss that. Click this link and install Scorch to see the professional intro to the tab.......you need to put some more work into the tab....

http://www.sheetmusicdirect.us/search/productDetail.do?itemId=1000064105

guest
You may want to rate the tab now too:
select rating
Wanna post a correction for this tab? Suggest correction