Oops, an error
Loading. Please wait.

Diamond Eyes tab

version 1
version 1

Whole song

Interactive

28,439 views 27 this week
2 commentsread comments
1 2 3 4 5
x 4
add to favorites
×
Save as Personal and add changes to this tab that will be seen only by you. Learn more ›
×
You can save this tab as Personal to edit and correct it or add notes. All changes will be seen only by you. Learn more »
launch autoscroll
font size
0
reset
how to read this tab
guitar tuner
backing track
0:00
0:00
edit
Autoscroll
slow
fast
+/-
esc
set tempo
stop
Diamond Eyes (Boom-Lay Boom-Lay Boom)
Shinedown
The Expendables Soundtrack (2010)

Diamond Eyes (Boom-Lay Boom-Lay Boom):  written by Brent Smith and Shinedown

NOTE:  I couldn't figure out the solo, but all of the rest is there.

GTR I - Drop D Tuning Electric (e,B,G,D,A,D)
GTR II - Drop D Tuning Electric (e,B,G,D,A,D)
GTR III - Drop D Tuning Electric (e,B,G,D,A,D)
GTR IV - Drop D Tuning Acoustic (e,B,G,D,A,D)

Intro

  GTR I
e|-------------------------------------------------|
B|-------------------------------------------------|
G|-------------------------------------------------|
D|--0----------------------------------------------|
A|--0----------------------------------------------|
D|--0----------------------------------------------|

  GTR I
e|-------------------------------------------------|
B|-------------------------------------------------|
G|-------------------------------------------------|
D|-------------------------------------------------|
A|--------------3h-5--------------------3h-5-------|
D|--0--------0-----------0h-3-----0----------------|

  GTR I
e|-------------------------------------------------|
B|-------------------------------------------------|
G|-------------------------------------------------|
D|-------------------------------------------------|
A|--------------3h-5--------------------3h-5-------|
D|--0--------0-----------0h-3-----0----------------|

  GTR I
e|-------------------------------------------------|
B|-------------------------------------------------|
G|-------------------------------------------------|
D|-------------------------------------------------|
A|--------------3h-5--------------------3h-5-------|
D|--0--------0-----------0h-3-----0----------------|

  GTR I
e|-------------------------------------------------|
B|-------------------------------------------------|
G|-------------------------------------------------|
D|-------------------------------------------------|
A|--------------3h-5--------------------3h-5-------|
D|--0--------0-----------0h-3-----0----------------|

  GTR I
e|-------------------------------------------------|
B|-------------------------------------------------|
G|-------------------------------------------------|
D|-------------------------------------------------|
A|--------------3h-5--------------------3h-5-------|
D|--0--------0-----------0h-3-----0----------------|
 |
 |GTR III
e|-20-20-20-20-20-20-20-20-20-20-20-20-20-20-20-20-|
B|-------------------------------------------------|
G|-------------------------------------------------|
D|-------------------------------------------------|
A|-------------------------------------------------|
D|-------------------------------------------------|

  GTR I
e|-------------------------------------------------|
B|-------------------------------------------------|
G|-------------------------------------------------|
D|-------------------------------------------------|
A|--------------3h-5--------------------3h-5-------|
D|--0--------0-----------0h-3-----0----------------|
 |
 |GTR III
e|-20-20-20-20-20-20-20-20-20-20-20-20-20-20-20-20-|
B|-------------------------------------------------|
G|-------------------------------------------------|
D|-------------------------------------------------|
A|-------------------------------------------------|
D|-------------------------------------------------|

  GTR I
e|-------------------------------------------------|
B|-------------------------------------------------|
G|-------------------------------------------------|
D|-------------------------------------------------|
A|--------------3h-5--------------------3h-5-------|
D|--0--------0-----------0h-3-----0----------------|
 |
 |GTR III
e|-20-20-20-20-20-20-20-20-20-20-20-20-20-20-20-20-|
B|-------------------------------------------------|
G|-------------------------------------------------|
D|-------------------------------------------------|
A|-------------------------------------------------|
D|-------------------------------------------------|

  GTR I
e|-------------------------------------------------|
B|-------------------------------------------------|
G|-------------------------------------------------|
D|-------------------------------------12\---------|
A|--------------3h-5-------------------12\---------|
D|--0--------0-----------0h-3-----0----12\---------|
 |
 |GTR II
e|-------------------------------------------------|
B|-------------------------------------------------|
G|-------------------------------------------------|
D|-------------------------------------12\---------|
A|-------------------------------------12\---------|
D|-------------------------------------12\---------|
 |
 |GTR III
e|-20-20-20-20-20-20-20-20-20-20-20-20-20-20-20-20-|
B|-------------------------------------------------|
G|-------------------------------------------------|
D|-------------------------------------------------|
A|-------------------------------------------------|
D|-------------------------------------------------|

Main Riff

  GTR I
e|-------------------------------------------------|
B|-------------------------------------------------|
G|-------------------------------------------------|
D|--0--------------------0h-3-----0----------------|
A|--0--------------------0h-3-----0----------------|
D|--0----------10h12-----0h-3-----0----10h12-------|
 |
 |GTR II
e|-------------------------------------------------|
B|-------------12~---------------------12~---------|
G|-------------12~---------------------12~---------|
D|--0--------------------0h-3-----0----------------|
A|--0--------------------0h-3-----0----------------|
D|--0--------------------0h-3-----0----------------|
 |
 |GTR III
e|-20-20-20-20-20-20-20-20-20-20-20-20-20-20-20-20-|
B|-------------------------------------------------|
G|-------------------------------------------------|
D|-------------------------------------------------|
A|-------------------------------------------------|
D|-------------------------------------------------|

  GTR I
e|-------------------------------------------------|
B|-------------------------------------------------|
G|-------------------------------------------------|
D|--0--------------------0h-3-----0----------------|
A|--0--------------------0h-3-----0----------------|
D|--0----------10h12-----0h-3-----0----10h12-------|
 |
 |GTR II
e|-------------------------------------------------|
B|-------------12~---------------------12~---------|
G|-------------12~---------------------12~---------|
D|--0--------------------0h-3-----0----------------|
A|--0--------------------0h-3-----0----------------|
D|--0--------------------0h-3-----0----------------|
 |
 |GTR III
e|-20-20-20-20-20-20-20-20-20-20-20-20-20-20-20-20-|
B|-------------------------------------------------|
G|-------------------------------------------------|
D|-------------------------------------------------|
A|-------------------------------------------------|
D|-------------------------------------------------|

  GTR I
e|-------------------------------------------------|
B|-------------------------------------------------|
G|-------------------------------------------------|
D|--0--------------------0h-3-----0----------------|
A|--0--------------------0h-3-----0----------------|
D|--0----------10h12-----0h-3-----0----10h12-------|
 |
 |GTR II
e|-------------------------------------------------|
B|-------------12~---------------------12~---------|
G|-------------12~---------------------12~---------|
D|--0--------------------0h-3-----0----------------|
A|--0--------------------0h-3-----0----------------|
D|--0--------------------0h-3-----0----------------|
 |
 |GTR III
e|-20-20-20-20-20-20-20-20-20-20-20-20-20-20-20-20-|
B|-------------------------------------------------|
G|-------------------------------------------------|
D|-------------------------------------------------|
A|-------------------------------------------------|
D|-------------------------------------------------|

  GTR I,II
e|-------------------------------------------------|
B|-------------------------------------------------|
G|-------------------------------------------------|
D|--3-----3-----3-----3-----5h-6--5-----3-----5----|
A|--3-----3-----3-----3-----5h-6--5-----3-----5----|
D|--3-----3-----3-----3-----5h-6--5-----3-----5----|
 |
 |GTR III
e|-20-20-20-20-20-20-20-20-20-20-20-20-20-20-20-20-|
B|-------------------------------------------------|
G|-------------------------------------------------|
D|-------------------------------------------------|
A|-------------------------------------------------|
D|-------------------------------------------------|

Verse

  GTR I
e|-------------------------------------------------|
B|-------------------------------------------------|
G|-------------------------------------------------|
D|--0--------------------0h-3-----0----------------|
A|--0--------------------0h-3-----0----------------|
D|--0----------10h12-----0h-3-----0----10h12-------|
 |
 |GTR II
e|-------------------------------------------------|
B|-------------12~---------------------12~---------|
G|-------------12~---------------------12~---------|
D|--0--------------------0h-3-----0----------------|
A|--0--------------------0h-3-----0----------------|
D|--0--------------------0h-3-----0----------------|
 |
 |GTR III
e|-------------------------------------------------|
B|-15-15-15-15-15-15-15-15-15-15-15-15-15-15-15-15-|
G|-------------------------------------------------|
D|-------------------------------------------------|
A|-------------------------------------------------|
D|-------------------------------------------------|

  GTR I
e|-------------------------------------------------|
B|-------------------------------------------------|
G|-------------------------------------------------|
D|--0--------------------0h-3-----0----------------|
A|--0--------------------0h-3-----0----------------|
D|--0----------10h12-----0h-3-----0----10h12-------|
 |
 |GTR II
e|-------------------------------------------------|
B|-------------12~---------------------12~---------|
G|-------------12~---------------------12~---------|
D|--0--------------------0h-3-----0----------------|
A|--0--------------------0h-3-----0----------------|
D|--0--------------------0h-3-----0----------------|
 |
 |GTR III
e|-------------------------------------------------|
B|-15-15-15-15-15-15-15-15-15-15-15-15-15-15-15-15-|
G|-------------------------------------------------|
D|-------------------------------------------------|
A|-------------------------------------------------|
D|-------------------------------------------------|

  GTR I
e|-------------------------------------------------|
B|-------------------------------------------------|
G|-------------------------------------------------|
D|--0--------------------0h-3-----0----------------|
A|--0--------------------0h-3-----0----------------|
D|--0----------10h12-----0h-3-----0----10h12-------|
 |
 |GTR II
e|-------------------------------------------------|
B|-------------12~---------------------12~---------|
G|-------------12~---------------------12~---------|
D|--0--------------------0h-3-----0----------------|
A|--0--------------------0h-3-----0----------------|
D|--0--------------------0h-3-----0----------------|
 |
 |GTR III
e|-------------------------------------------------|
B|-15-15-15-15-15-15-15-15-15-15-15-15-15-15-15-15-|
G|-------------------------------------------------|
D|-------------------------------------------------|
A|-------------------------------------------------|
D|-------------------------------------------------|

  GTR I,II
e|-------------------------------------------------|
B|-------------------------------------------------|
G|-------------------------------------------------|
D|--3-----3-----3-----3-----5h-6--5-----3-----5----|
A|--3-----3-----3-----3-----5h-6--5-----3-----5----|
D|--3-----3-----3-----3-----5h-6--5-----3-----5----|
 |
 |GTR III
e|-------------------------------------------------|
B|-15-15-15-15-15-15-15-15-15-15-15-15-15-15-15-15-|
G|-------------------------------------------------|
D|-------------------------------------------------|
A|-------------------------------------------------|
D|-------------------------------------------------|

  GTR I
e|-------------------------------------------------|
B|-------------------------------------------------|
G|-------------------------------------------------|
D|--0--------------------0h-3-----0----------------|
A|--0--------------------0h-3-----0----------------|
D|--0----------10h12-----0h-3-----0----10h12-------|
 |
 |GTR II
e|-------------------------------------------------|
B|-------------12~---------------------12~---------|
G|-------------12~---------------------12~---------|
D|--0--------------------0h-3-----0----------------|
A|--0--------------------0h-3-----0----------------|
D|--0--------------------0h-3-----0----------------|
 |
 |GTR III
e|-------------------------------------------------|
B|-15-15-15-15-15-15-15-15-15-15-15-15-15-15-15-15-|
G|-------------------------------------------------|
D|-------------------------------------------------|
A|-------------------------------------------------|
D|-------------------------------------------------|

  GTR I
e|-------------------------------------------------|
B|-------------------------------------------------|
G|-------------------------------------------------|
D|--0--------------------0h-3-----0----------------|
A|--0--------------------0h-3-----0----------------|
D|--0----------10h12-----0h-3-----0----10h12-------|
 |
 |GTR II
e|-------------------------------------------------|
B|-------------12~---------------------12~---------|
G|-------------12~---------------------12~---------|
D|--0--------------------0h-3-----0----------------|
A|--0--------------------0h-3-----0----------------|
D|--0--------------------0h-3-----0----------------|
 |
 |GTR III
e|-------------------------------------------------|
B|-15-15-15-15-15-15-15-15-15-15-15-15-15-15-15-15-|
G|-------------------------------------------------|
D|-------------------------------------------------|
A|-------------------------------------------------|
D|-------------------------------------------------|

  GTR I
e|-------------------------------------------------|
B|-------------------------------------------------|
G|-------------------------------------------------|
D|--0--------------------0h-3-----0----------------|
A|--0--------------------0h-3-----0----------------|
D|--0----------10h12-----0h-3-----0----10h12-------|
 |
 |GTR II
e|-------------------------------------------------|
B|-------------12~---------------------12~---------|
G|-------------12~---------------------12~---------|
D|--0--------------------0h-3-----0----------------|
A|--0--------------------0h-3-----0----------------|
D|--0--------------------0h-3-----0----------------|
 |
 |GTR III
e|-------------------------------------------------|
B|-15-15-15-15-15-15-15-15-15-15-15-15-15-15-15-15-|
G|-------------------------------------------------|
D|-------------------------------------------------|
A|-------------------------------------------------|
D|-------------------------------------------------|

  GTR I,II
e|-------------------------------------------------|
B|-------------------------------------------------|
G|-------------------------------------------------|
D|--3-----3-----3-----3-----5h-6--5-----3-----5----|
A|--3-----3-----3-----3-----5h-6--5-----3-----5----|
D|--3-----3-----3-----3-----5h-6--5-----3-----5----|
 |
 |GTR III
e|-------------------------------------------------|
B|-15-15-15-15-15-15-15-15-15-15-15-15-15-15-15-15-|
G|-------------------------------------------------|
D|-------------------------------------------------|
A|-------------------------------------------------|
D|-------------------------------------------------|

Pre Chorus

  GTR I,II,III
e|-------------------------------------------------|
B|-------------------------------------------------|
G|-------------------------------------------------|
D|--0-10h12--0-10h12--0-10h12--0-10h12--0-10h12--0-|
A|--0-10h12--0-10h12--0-10h12--0-10h12--0-10h12--0-|
D|--0-10h12--0-10h12--0-10h12--0-10h12--0-10h12--0-|

  GTR I,II,III
e|-------------------------------------------------|
B|-------------------------------------------------|
G|-------------------------------------------------|
D|--8-----8-----8-----8-----8-----8-----8-----8----|
A|--8-----8-----8-----8-----8-----8-----8-----8----|
D|--8-----8-----8-----8-----8-----8-----8-----8----|

  GTR I,II
e|-------------------------------------------------|
B|-------------------------------------------------|
G|-------------------------------------------------|
D|-------------------------------------------------|
A|-------------------------------------------------|
D|--0-(3)(3)-0-(3)(3)-0-(3)(3)-0-(3)(3)-0-(3)(3)-0-|
 |
 |GTR III
e|-------------------------------------------------|
B|-------------------------------------------------|
G|-------------------------------------------------|
D|--0--3--3--0--3--3--0--3--3--0--3--3--0--3--3--0-|
A|--0--3--3--0--3--3--0--3--3--0--3--3--0--3--3--0-|
D|--0--3--3--0--3--3--0--3--3--0--3--3--0--3--3--0-|

  GTR I,II,III
e|-------------------------------------------------|
B|-------------------------------------------------|
G|--5-----5-----5-----5-----5-----5-----5-----5----|
D|--5-----5-----5-----5-----5-----5-----5-----5----|
A|--3-----3-----3-----3-----3-----3-----3-----3----|
D|-------------------------------------------------|

  GTR I,II,III
e|-------------------------------------------------|
B|-------------------------------------------------|
G|-------------------------------------------------|
D|--0-10h12--0-10h12--0-10h12--0-10h12--0-10h12--0-|
A|--0-10h12--0-10h12--0-10h12--0-10h12--0-10h12--0-|
D|--0-10h12--0-10h12--0-10h12--0-10h12--0-10h12--0-|

  GTR I,II,III
e|-------------------------------------------------|
B|-------------------------------------------------|
G|-------------------------------------------------|
D|--8-----8-----8-----8-----8-----8-----8-----8----|
A|--8-----8-----8-----8-----8-----8-----8-----8----|
D|--8-----8-----8-----8-----8-----8-----8-----8----|

  GTR I,II
e|-------------------------------------------------|
B|-------------------------------------------------|
G|-------------------------------------------------|
D|-------------------------------------------------|
A|-------------------------------------------------|
D|--0-(3)(3)-0-(3)(3)-0-(3)(3)-0-(3)(3)-0-(3)(3)-0-|
 |
 |GTR III
e|-------------------------------------------------|
B|-------------------------------------------------|
G|-------------------------------------------------|
D|--0--3--3--0--3--3--0--3--3--0--3--3--0--3--3--0-|
A|--0--3--3--0--3--3--0--3--3--0--3--3--0--3--3--0-|
D|--0--3--3--0--3--3--0--3--3--0--3--3--0--3--3--0-|

  GTR I,II,III
e|-------------------------------------------------|
B|-------------------------------------------------|
G|-------------------------------------------------|
D|--0-----------------------0-----0-----0-----0----|
A|--0-----0-----0-----0-----0-----0-----0-----0----|
D|--0-----0-----0-----0-----0-----0-----0-----0----|
          .     .     .      

Chorus

  GTR I,II
e|-------------------------------------------------|
B|-------------------------------------------------|
G|-------------------------------------------------|
D|--8-----8-----8-----8-----8-----8-----8-----8----|
A|--8-----8-----8-----8-----8-----8-----8-----8----|
D|--8-----8-----8-----8-----8-----8-----8-----8----|
 |
 |GTR III
e|-------------------------------------------------|
B|-------------------------------------------------|
G|-15----15----15----15----15----15----15----15----|
D|--x-----x-----x-----x-----x-----x-----x-----x----|
A|-13----13----13----13----13----13----13----13----|
D|-------------------------------------------------|

  GTR I,II
e|-------------------------------------------------|
B|-------------------------------------------------|
G|-------------------------------------------------|
D|--3-----3-----3-----3-----3-----3-----3-----3----|
A|--3-----3-----3-----3-----3-----3-----3-----3----|
D|--3-----3-----3-----3-----3-----3-----3-----3----|
 |
 |GTR III
e|-------------------------------------------------|
B|-------------------------------------------------|
G|-14----14----14----14----14----14----14----14----|
D|--x-----x-----x-----x-----x-----x-----x-----x----|
A|-12----12----12----12----12----12----12----12----|
D|-------------------------------------------------|

  GTR I,II
e|-------------------------------------------------|
B|-------------------------------------------------|
G|-------------------------------------------------|
D|--2-----2-----2-----2-----2-----2-----2-----2----|
A|--2-----2-----2-----2-----2-----2-----2-----2----|
D|--2-----2-----2-----2-----2-----2-----2-----2----|
 |
 |GTR III
e|-------------------------------------------------|
B|-------------------------------------------------|
G|-12----12----12----12----12----12----12----12----|
D|--x-----x-----x-----x-----x-----x-----x-----x----|
A|-10----10----10----10----10----10----10----10----|
D|-------------------------------------------------|

  GTR I
e|-------------------------------------------------|
B|-------------------------------------------------|
G|-------------------------------------------------|
D|--0-----0-----0-----0-----0-----7-----7-----7----|
A|--0-----0-----0-----0-----0-----7-----7-----7----|
D|--0-----0-----0-----0-----0-----7-----7-----7----|
 |
 |GTR II
e|-------------------------------------------------|
B|-------------------------------------------------|
G|--7-----7-----7-----7-----7----------------------|
D|--7-----7-----7-----7-----7-----7-----7-----7----|
A|--5-----5-----5-----5-----5-----7-----7-----7----|
D|--------------------------------7-----7-----7----|
 |
 |GTR III
e|-------------------------------------------------|
B|-------------------------------------------------|
G|--7-----7-----7-----7-----7----14----14----14----|
D|--x-----x-----x-----x-----x-----x-----x-----x----|
A|--5-----5-----5-----5-----5----12----12----12----|
D|-------------------------------------------------|

  GTR I,II
e|-------------------------------------------------|
B|-------------------------------------------------|
G|-------------------------------------------------|
D|--8-----8-----8-----8-----8-----8-----8-----8----|
A|--8-----8-----8-----8-----8-----8-----8-----8----|
D|--8-----8-----8-----8-----8-----8-----8-----8----|
 |
 |GTR III
e|-------------------------------------------------|
B|-------------------------------------------------|
G|-15----15----15----15----15----15----15----15----|
D|--x-----x-----x-----x-----x-----x-----x-----x----|
A|-13----13----13----13----13----13----13----13----|
D|-------------------------------------------------|

  GTR I,II
e|-------------------------------------------------|
B|-------------------------------------------------|
G|-------------------------------------------------|
D|--3-----3-----3-----3-----3-----3-----3-----3----|
A|--3-----3-----3-----3-----3-----3-----3-----3----|
D|--3-----3-----3-----3-----3-----3-----3-----3----|
 |
 |GTR III
e|-------------------------------------------------|
B|-------------------------------------------------|
G|-14----14----14----14----14----14----14----14----|
D|--x-----x-----x-----x-----x-----x-----x-----x----|
A|-12----12----12----12----12----12----12----12----|
D|-------------------------------------------------|

  GTR I,II
e|-------------------------------------------------|
B|-------------------------------------------------|
G|--5-----5-----5-----5-----5-----5-----5-----5----|
D|--5-----5-----5-----5-----5-----5-----5-----5----|
A|--3-----3-----3-----3-----3-----3-----3-----3----|
D|-------------------------------------------------|
 |
 |GTR III
e|-------------------------------------------------|
B|-------------------------------------------------|
G|-17----17----17----17----17----17----17----17----|
D|--x-----x-----x-----x-----x-----x-----x-----x----|
A|-15----15----15----15----15----15----15----15----|
D|-------------------------------------------------|

  GTR I,II
e|-------------------------------------------------|
B|-------------------------------------------------|
G|--6-----6-----6-----6-----6-----6-----6-----6----|
D|--7-----7-----7-----7-----7-----7-----7-----7----|
A|--4-----4-----4-----4-----4-----4-----4-----4----|
D|-------------------------------------------------|
 |
 |GTR III
e|-------------------------------------------------|
B|-------------------------------------------------|
G|-18----18----18----18----18----18----18----18----|
D|--x-----x-----x-----x-----x-----x-----x-----x----|
A|-16----16----16----16----16----16----16----16----|
D|-------------------------------------------------|

Post Chorus

  GTR I
e|-------------------------------------------------|
B|-------------------------------------------------|
G|-------------------------------------------------|
D|-------------------------------------------------|
A|--------------3h-5--------------------3h-5-------|
D|--0--------0-----------0h-3-----0----------------|
 |
 |GTR II
e|-------------------------------------------------|
B|-------------------------------------------------|
G|-------------------------------------------------|
D|-------------10h12-------------------10h12-------|
A|-------------------------------------------------|
D|--0--------0-----------0h-3-----0----------------|
 |
 |GTR III
e|-------------------------------------------------|
B|-15-15-15-15-15-15-15-15-15-15-15-15-15-15-15-15-|
G|-------------------------------------------------|
D|-------------------------------------------------|
A|-------------------------------------------------|
D|-------------------------------------------------|

  GTR I
e|-------------------------------------------------|
B|-------------------------------------------------|
G|-------------------------------------------------|
D|-------------------------------------------------|
A|--------------3h-5--------------------3h-5-------|
D|--0--------0-----------0h-3-----0----------------|
 |
 |GTR II
e|-------------------------------------------------|
B|-------------------------------------------------|
G|-------------------------------------------------|
D|-------------10h12-------------------10h12-------|
A|-------------------------------------------------|
D|--0--------0-----------0h-3-----0----------------|
 |
 |GTR III
e|-------------------------------------------------|
B|-15-15-15-15-15-15-15-15-15-15-15-15-15-15-15-15-|
G|-------------------------------------------------|
D|-------------------------------------------------|
A|-------------------------------------------------|
D|-------------------------------------------------|

  GTR I
e|-------------------------------------------------|
B|-------------------------------------------------|
G|-------------------------------------------------|
D|-------------------------------------------------|
A|--------------3h-5--------------------3h-5-------|
D|--0--------0-----------0h-3-----0----------------|
 |
 |GTR II
e|-------------------------------------------------|
B|-------------------------------------------------|
G|-------------------------------------------------|
D|-------------10h12-------------------10h12-------|
A|-------------------------------------------------|
D|--0--------0-----------0h-3-----0----------------|
 |
 |GTR III
e|-------------------------------------------------|
B|-15-15-15-15-15-15-15-15-15-15-15-15-15-15-15-15-|
G|-------------------------------------------------|
D|-------------------------------------------------|
A|-------------------------------------------------|
D|-------------------------------------------------|

  GTR I
e|-------------------------------------------------|
B|-------------------------------------------------|
G|-------------------------------------------------|
D|-------------------------------------------------|
A|-------------------------------------------------|
D|--0----------------------------------------------|
 |
 |GTR II
e|-------------------------------------------------|
B|-------------------------------------------------|
G|-------------------------------------------------|
D|-------------10h12\------------------------------|
A|-------------------------------------------------|
D|--0--------0-------------------------------------|
 |
 |GTR III
e|-------------------------------------------------|
B|-15-15-15-15-15-15-15-15-------------------------|
G|-------------------------------------------------|
D|-------------------------------------------------|
A|-------------------------------------------------|
D|-------------------------------------------------|

Repeat Verse
Repeat Pre Chorus
Repeat Chorus (2x)

Break

Rest 15 Bars then...

  GTR I,II,III
e|-------------------------------------------------|
B|-------------------------------------------------|
G|-------------------------------------------------|
D|--0-----------------------0-----0-----0-----0----|
A|--0-----0-----0-----0-----0-----0-----0-----0----|
D|--0-----0-----0-----0-----0-----0-----0-----0----|
          .     .     .      

Guitar Solo

  GTR I
e|-------------------------------------------------|
B|-------------------------------------------------|
G|-------------------------------------------------|
D|--0--------------------0h-3-----0----------------|
A|--0--------------------0h-3-----0----------------|
D|--0----------10h12-----0h-3-----0----10h12-------|
 |
 |GTR II
e|-------------------------------------------------|
B|-------------------------------------------------|
G|-------------------------------------------------|
D|-------------------------------------------------|
A|-------------------------------------------------|
D|-------------------------------------------------|

  GTR I
e|-------------------------------------------------|
B|-------------------------------------------------|
G|-------------------------------------------------|
D|--0--------------------0h-3-----0----------------|
A|--0--------------------0h-3-----0----------------|
D|--0----------10h12-----0h-3-----0----10h12-------|
 |
 |GTR II
e|-------------------------------------------------|
B|-------------------------------------------------|
G|-------------------------------------------------|
D|-------------------------------------------------|
A|-------------------------------------------------|
D|-------------------------------------------------|

  GTR I
e|-------------------------------------------------|
B|-------------------------------------------------|
G|-------------------------------------------------|
D|--0--------------------0h-3-----0----------------|
A|--0--------------------0h-3-----0----------------|
D|--0----------10h12-----0h-3-----0----10h12-------|
 |
 |GTR II
e|-------------------------------------------------|
B|-------------------------------------------------|
G|-------------------------------------------------|
D|-------------------------------------------------|
A|-------------------------------------------------|
D|-------------------------------------------------|

  GTR I
e|-------------------------------------------------|
B|-------------------------------------------------|
G|-------------------------------------------------|
D|--3-----3-----3-----3-----5h-6--5-----3-----5----|
A|--3-----3-----3-----3-----5h-6--5-----3-----5----|
D|--3-----3-----3-----3-----5h-6--5-----3-----5----|
 |
 |GTR II
e|-------------------------------------------------|
B|-------------------------------------------------|
G|-------------------------------------------------|
D|-------------------------------------------------|
A|-------------------------------------------------|
D|-------------------------------------------------|

  GTR I
e|-------------------------------------------------|
B|-------------------------------------------------|
G|-------------------------------------------------|
D|--0--------------------0h-3-----0----------------|
A|--0--------------------0h-3-----0----------------|
D|--0----------10h12-----0h-3-----0----10h12-------|
 |
 |GTR II
e|-------------------------------------------------|
B|-------------------------------------------------|
G|-------------------------------------------------|
D|-------------------------------------------------|
A|-------------------------------------------------|
D|-------------------------------------------------|
 |
 |GTR III
e|-------------------------------------------------|
B|-------------------------------------------------|
G|-------------------------------------------------|
D|-------------------------------------------------|
A|-------------------------------------------------|
D|-------------------------------------------------|

  GTR I
e|-------------------------------------------------|
B|-------------------------------------------------|
G|-------------------------------------------------|
D|--0--------------------0h-3-----0----------------|
A|--0--------------------0h-3-----0----------------|
D|--0----------10h12-----0h-3-----0----10h12-------|
 |
 |GTR II
e|-------------------------------------------------|
B|-------------------------------------------------|
G|-------------------------------------------------|
D|-------------------------------------------------|
A|-------------------------------------------------|
D|-------------------------------------------------|
 |
 |GTR III
e|-------------------------------------------------|
B|-------------------------------------------------|
G|-------------------------------------------------|
D|-------------------------------------------------|
A|-------------------------------------------------|
D|-------------------------------------------------|

  GTR I
e|-------------------------------------------------|
B|-------------------------------------------------|
G|-------------------------------------------------|
D|--0--------------------0h-3-----0----------------|
A|--0--------------------0h-3-----0----------------|
D|--0----------10h12-----0h-3-----0----10h12-------|
 |
 |GTR II
e|-------------------------------------------------|
B|-------------------------------------------------|
G|-------------------------------------------------|
D|-------------------------------------------------|
A|-------------------------------------------------|
D|-------------------------------------------------|
 |
 |GTR III
e|-------------------------------------------------|
B|-------------------------------------------------|
G|-------------------------------------------------|
D|-------------------------------------------------|
A|-------------------------------------------------|
D|-------------------------------------------------|

  GTR I
e|-------------------------------------------------|
B|-------------------------------------------------|
G|-------------------------------------------------|
D|--0-----------------------0-----0-----0-----0----|
A|--0-----0-----0-----0-----0-----0-----0-----0----|
D|--0-----0-----0-----0-----0-----0-----0-----0----|
 |        .     .     .      
 |GTR II
e|-------------------------------------------------|
B|-------------------------------------------------|
G|-------------------------------------------------|
D|-------------------------------------------------|
A|-------------------------------------------------|
D|-------------------------------------------------|
 |
 |GTR III
e|-------------------------------------------------|
B|-------------------------------------------------|
G|-------------------------------------------------|
D|-------------------------------------------------|
A|-------------------------------------------------|
D|-------------------------------------------------|

Bridge

  GTR I
e|-------------------------------------------------|
B|--------------------1----------------------------|
G|--------------3-----------------3----------------|
D|--------3-----------------------------3----------|
A|--1-----------------------------------------1----|
D|-------------------------------------------------|
 |
 |GTR IV
e|-------------------------------------------------|
B|--1-----1-----1-----1-----1-----1-----1-----1----|
G|--3-----3-----3-----3-----3-----3-----3-----3----|
D|--3-----3-----3-----3-----3-----3-----3-----3----|
A|--1-----1-----1-----1-----1-----1-----1-----1----|
D|-------------------------------------------------|

  GTR I
e|-------------------------------------------------|
B|-------------------------------------------------|
G|--------------------5----------------------------|
D|--------------3-----------------3----------------|
A|--------3-----------------------------3----------|
D|--3-----------------------------------------3----|
 |
 |GTR IV
e|-------------------------------------------------|
B|--6-----6-----6-----6-----6-----6-----6-----6----|
G|--5-----5-----5-----5-----5-----5-----5-----5----|
D|--3-----3-----3-----3-----3-----3-----3-----3----|
A|--3-----3-----3-----3-----3-----3-----3-----3----|
D|--3-----3-----3-----3-----3-----3-----3-----3----|

  GTR I
e|-------------------------------------------------|
B|-------------------------------------------------|
G|--------------------5----------------------------|
D|--------------2-----------------2----------------|
A|--------2-----------------------------2----------|
D|--2-----------------------------------------2----|
 |
 |GTR IV
e|-------------------------------------------------|
B|--5-----5-----5-----5-----5-----5-----5-----5----|
G|--4-----4-----4-----4-----4-----4-----4-----4----|
D|--2-----2-----2-----2-----2-----2-----2-----2----|
A|--2-----2-----2-----2-----2-----2-----2-----2----|
D|--2-----2-----2-----2-----2-----2-----2-----2----|

  GTR I
e|--------------------0----------------------------|
B|--------------------------3----------------------|
G|--------------------------------2-----------0----|
D|--------------0-----------------------0----------|
A|--------0----------------------------------------|
D|--0----------------------------------------------|
 |
 |GTR IV
e|-------------------------------------------------|
B|--3-----3-----3-----3-----3-----3-----3-----3----|
G|--2-----2-----2-----2-----2-----2-----2-----2----|
D|--0-----0-----0-----0-----0-----0-----0-----0----|
A|--0-----0-----0-----0-----0-----0-----0-----0----|
D|--0-----0-----0-----0-----0-----0-----0-----0----|

  GTR I
e|-------------------------------------------------|
B|--------------------1----------------------------|
G|--------------3-----------------3----------------|
D|--------3-----------------------------3----------|
A|--1-----------------------------------------1----|
D|-------------------------------------------------|
 |
 |GTR II,III
e|-------------------------------------------------|
B|-11----------------13----------11----------------|
G|-10----------------------------------10----------|
D|-------------------------------------------------|
A|-------------------------------------------------|
D|-------------------------------------------------|
 |
 |GTR IV
e|-------------------------------------------------|
B|--1-----1-----1-----1-----1-----1-----1-----1----|
G|--3-----3-----3-----3-----3-----3-----3-----3----|
D|--3-----3-----3-----3-----3-----3-----3-----3----|
A|--1-----1-----1-----1-----1-----1-----1-----1----|
D|-------------------------------------------------|

  GTR I
e|-------------------------------------------------|
B|-------------------------------------------------|
G|--------------------5----------------------------|
D|--------------3-----------------3----------------|
A|--------3-----------------------------3----------|
D|--3-----------------------------------------3----|
 |
 |GTR IV
e|-------------------------------------------------|
B|--6-----6-----6-----6-----6-----6-----6-----6----|
G|--5-----5-----5-----5-----5-----5-----5-----5----|
D|--3-----3-----3-----3-----3-----3-----3-----3----|
A|--3-----3-----3-----3-----3-----3-----3-----3----|
D|--3-----3-----3-----3-----3-----3-----3-----3----|

  GTR I
e|-------------------------------------------------|
B|--------------------3-----------------------3----|
G|--------------5----------5-----------------------|
D|--------5----------------------5-----------------|
A|--3-----------------------------------3----------|
D|-------------------------------------------------|
 |
 |GTR II,III
e|-------------------------------------------------|
B|-13----------------------------------------------|
G|-------------------10----------------------12----|
D|-------------------------------------------------|
A|-------------------------------------------------|
D|-------------------------------------------------|
 |
 |GTR IV
e|-------------------------------------------------|
B|--3-----3-----3-----3-----3-----3-----3-----3----|
G|--5-----5-----5-----5-----5-----5-----5-----5----|
D|--5-----5-----5-----5-----5-----5-----5-----5----|
A|--3-----3-----3-----3-----3-----3-----3-----3----|
D|-------------------------------------------------|

  GTR I,II,III,IV
e|-------------------------------------------------|
B|-------------------------------------------------|
G|-------------------------------------------------|
D|-------------------------------------------------|
A|-------------------------------------------------|
D|-------------------------------------------------|

Repeat Chorus (3x)

Outro

  GTR I,II
e|-------------------------------------------------|
B|-------------------------------------------------|
G|-------------------------------------------------|
D|--0----------10h12-----0h-3-----0----10h12-------|
A|--0----------10h12-----0h-3-----0----10h12-------|
D|--0----------10h12-----0h-3-----0----10h12-------|
 |
 |GTR II
e|-------------------------------------------------|
B|-15-15-15-15-15-15-15-15-15-15-15-15-15-15-15-15-|
G|-------------------------------------------------|
D|-------------------------------------------------|
A|-------------------------------------------------|
D|-------------------------------------------------|

  GTR I,II
e|-------------------------------------------------|
B|-------------------------------------------------|
G|-------------------------------------------------|
D|--0----------10h12-----0h-3-----0----10h12-------|
A|--0----------10h12-----0h-3-----0----10h12-------|
D|--0----------10h12-----0h-3-----0----10h12-------|
 |
 |GTR II
e|-------------------------------------------------|
B|-15-15-15-15-15-15-15-15-15-15-15-15-15-15-15-15-|
G|-------------------------------------------------|
D|-------------------------------------------------|
A|-------------------------------------------------|
D|-------------------------------------------------|

  GTR I,II
e|-------------------------------------------------|
B|-------------------------------------------------|
G|-------------------------------------------------|
D|--0----------10h12-----0h-3-----0----10h12-------|
A|--0----------10h12-----0h-3-----0----10h12-------|
D|--0----------10h12-----0h-3-----0----10h12-------|
 |
 |GTR II
e|-------------------------------------------------|
B|-15-15-15-15-15-15-15-15-15-15-15-15-15-15-15-15-|
G|-------------------------------------------------|
D|-------------------------------------------------|
A|-------------------------------------------------|
D|-------------------------------------------------|

  GTR I,II
e|-------------------------------------------------|
B|-------------------------------------------------|
G|-------------------------------------------------|
D|--0----------10h12-----0h-3-----0----10h12-------|
A|--0----------10h12-----0h-3-----0----10h12-------|
D|--0----------10h12-----0h-3-----0----10h12-------|
 |
 |GTR II
e|-------------------------------------------------|
B|-15-15-15-15-15-15-15-15-15-15-15-15-15-15-15-15-|
G|-------------------------------------------------|
D|-------------------------------------------------|
A|-------------------------------------------------|
D|-------------------------------------------------|

  GTR I,II
e|-------------------------------------------------|
B|-------------------------------------------------|
G|-------------------------------------------------|
D|--0----------10h12-----0h-3-----0----10h12-------|
A|--0----------10h12-----0h-3-----0----10h12-------|
D|--0----------10h12-----0h-3-----0----10h12-------|
 |
 |GTR II
e|-------------------------------------------------|
B|-15-15-15-15-15-15-15-15-15-15-15-15-15-15-15-15-|
G|-------------------------------------------------|
D|-------------------------------------------------|
A|-------------------------------------------------|
D|-------------------------------------------------|

  GTR I,II
e|-------------------------------------------------|
B|-------------------------------------------------|
G|-------------------------------------------------|
D|--0----------10h12-----0h-3-----0----10h12-------|
A|--0----------10h12-----0h-3-----0----10h12-------|
D|--0----------10h12-----0h-3-----0----10h12-------|
 |
 |GTR II
e|-------------------------------------------------|
B|-15-15-15-15-15-15-15-15-15-15-15-15-15-15-15-15-|
G|-------------------------------------------------|
D|-------------------------------------------------|
A|-------------------------------------------------|
D|-------------------------------------------------|

  GTR I,II
e|-------------------------------------------------|
B|-------------------------------------------------|
G|-------------------------------------------------|
D|--0----------10h12-----0h-3-----0----10h12-------|
A|--0----------10h12-----0h-3-----0----10h12-------|
D|--0----------10h12-----0h-3-----0----10h12-------|
 |
 |GTR II
e|-------------------------------------------------|
B|-15-15-15-15-15-15-15-15-15-15-15-15-15-15-15-15-|
G|-------------------------------------------------|
D|-------------------------------------------------|
A|-------------------------------------------------|
D|-------------------------------------------------|

  GTR I,II
e|-------------------------------------------------|
B|-------------------------------------------------|
G|-------------------------------------------------|
D|-12\---------------------------------------------|
A|-12\---------------------------------------------|
D|-12\---------------------------------------------|


| b  bend
| r  release bend
|trp triplet
|PH. pinch harmonic
|fbk feedback
| .  palm-mute
| /  slide up
| \  slide down
| h  hammer-on
| p  pull-off
| ~  vibrato
|(7) harmonic
| x  Mute note
===============================================================================

            
            
Suggest correction
Creating personal tab
Creating personal tab
You can edit any tab online and save it as your Personal.

You can edit, replace or remove any tab part or add personal notes – all changes will be seen only by you.

Personal tabs can be accessed anytime from any device, even offline.
Learn more »
comments
print report bad tab
2 comments total.
0 reply
johnterje 10 Sep 04, 2010 06:21 AM

It's damn hard getting a good overview of this. You should remove some unnecessary guitars or make it into a gp-file...

0 reply
Seasons_Change 10 Sep 25, 2010 08:14 PM

True, but that said, he got it pretty close. Also, the clean guitar progression at the start (which wasnt tabbed) is Dmin - Bbmaj - Amin- Cmaj.

guest
You may want to rate the tab now too:
select rating
Wanna post a correction for this tab? Suggest correction