Oops, an error
Loading. Please wait.

Lost In The Crowd tab

version 2
version 2

Whole song

9,269 views 12 this week
3 commentsread comments
1 2 3 4 5
x 4
add to favorites
×
Save as Personal and add changes to this tab that will be seen only by you. Learn more ›
×
You can save this tab as Personal to edit and correct it or add notes. All changes will be seen only by you. Learn more »
launch autoscroll
font size
0
reset
how to read this tab
guitar tuner
edit
Autoscroll
slow
fast
+/-
esc
set tempo
stop
This is my first tab...so..yeah...

Intro/verse--No Distortion

You can pick up the strumming pattern pretty easy.
e|--111111--111111--|
B|--333333--333333--|
G|--222222--000000--|
D|--000000--000000--|
A|--xxxxxx--xxxxxx--|
D|--xxxxxx--xxxxxx--|

A little bit into the verse, he starts hitting seperate nots. There doesn't seem to be a 
but this was what I heard most of the time.

e|--------------------------1---------------------|
B|------3---------3-------3---3-------3-----------|
G|--2-2---2-2---0---0-0-2-------2-0-0---0-0-------|
D|------------0-----------------------------------|
A|------------------------------------------------|
D|------------------------------------------------|

Pre-Chorus
e|--------|
B|--------|
G|--------|
D|-222222-|
A|-222222-|
D|-222222-|
2

Chorus

e|------------------------------|
B|------------------------------|
G|------------------------------|
D|-0-0--10101010/888-3xx3xx-320-|         2 Times
A|-0-0--10101010/888-3xx3xx-320-|
D|-0-0--10101010/888-3xx3xx-320-|

Repeat the verse and chorus

Interlude
e|---------------|
B|---------------|
G|---------------|
D|-000---000----0|          4 times
A|-000-5-000-87-0|
D|-000---000----0|

Note:I couldnt figure out the solo and the backing guitar part for the solo sorry

Chorus 2 times and you're done

            
            
Suggest correction
Creating personal tab
Creating personal tab
You can edit any tab online and save it as your Personal.

You can edit, replace or remove any tab part or add personal notes – all changes will be seen only by you.

Personal tabs can be accessed anytime from any device, even offline.
Learn more »
comments
print report bad tab
3 comments total.
0 reply
joeybones 10 Nov 01, 2007 04:12 PM

and the solo?

0 reply
fineagain 30 Dec 18, 2008 10:58 AM

the backing part to the solo goes like this:
E---------------------------------
B---------------------------------
G---------------------------------
D---------------------------------
A---------------------------------- Dose that twice then
D-8-88-8-88-10-10-101010-------------

E-------------------
B-------------------
G-------------------
D-------------------
A-------------------
D-8-88-88-8-3xx-50320---- Then back to the Chorus

0 reply
dudasbence111 15 Aug 27, 2017 01:48 PM

It helped me to learn this song, my secret love asked me to learn. Thanks, really! :)

guest
You may want to rate the tab now too:
select rating
Wanna post a correction for this tab? Suggest correction