Oops, an error
Loading. Please wait.

Outcast tab

1,966 views 6 this week
5 commentsread comments
1 2 3 4 5
x 11
add to favorites
×
Save as Personal and add changes to this tab that will be seen only by you. Learn more ›
×
You can save this tab as Personal to edit and correct it or add notes. All changes will be seen only by you. Learn more »
launch autoscroll
font size
0
reset
how to read this tab
guitar tuner
edit
Autoscroll
slow
fast
+/-
esc
set tempo
stop
INTRO/VERSE:
Lead:
E|---------------------------------------------|
B|-------6----------6----------6---------------|
G|-------5----------5----------5---------------|
D|--0--------3-3-3------8-8-8------------------|
A|--0--------3-3-3------8-8-8------------------|
D|--0--------3-3-3------8-8-8---------7-8-9-10-|

Rhythm:
E|---------------------------------------------|
B|---------------------------------------------|
G|---------------------------------------------|
D|--0--------3-3-3------8-8-8------------------|
A|--0--------3-3-3------8-8-8------------------|
D|--0--------3-3-3------8-8-8---------7-8-9-10-|


PRECHORUS:
Lead:
E|-------------------------------------------------------------------|
B|----------6--------------6--------------6--------------------------|
G|----------5--------------5--------------5--------------------------|
D|-------------------------------------------------------------------|
A|-------------------------------------------------------------------|
D|-------------------------------------------------------------------|
                                                                               
Rhythm:                                                                    
E|----------------------------------------------------------------------------------|
B|----------------------------------------------------------------------------------|
G|--7-7-7-7-7-7-7-7-10-10-10-10-10-10-10-10-3-3-3-3-3-3-3-3-3-3-3-3-3-3-3-3-2-3-4-5-|
D|--x-x-x-x-x-x-x-x-x--x--x--x--x--x--x--x--x-x-x-x-x-x-x-x-x-x-x-x-x-x-x-x-x-x-x-x-|
A|--5-5-5-5-5-5-5-5-8--8--8--8--8--8--8--8--1-1-1-1-1-1-1-1-1-1-1-1-1-1-1-1-0-1-2-3-|
D|----------------------------------------------------------------------------------|
The third prechorus has no lead guitar.


CHORUS:
Both Guitars:
E|----------------------------------------------------------------------------------|
B|----------------------------------------------------------------------------------|
G|--7-7-7-7-7-7-7-7-10-10-10-10-10-10-10-10-3-3-3-3-3-3-3-3-3-3-3-3-3-3-3-3-2-3-4-5-|
D|--7-7-7-7-7-7-7-7-10-10-10-10-10-10-10-10-3-3-3-3-3-3-3-3-3-3-3-3-3-3-3-3-2-3-4-5-|
A|--5-5-5-5-5-5-5-5-8--8--8--8--8--8--8--8--1-1-1-1-1-1-1-1-1-1-1-1-1-1-1-1-0-1-2-3-|
D|----------------------------------------------------------------------------------|


POST-CHORUS:
Lead:
E|-------------------------------------------------------------------|
B|----------6----------6--------6------------------------------------|
G|----------5----------5--------5------------------------------------|
D|-------------------------------------------------------------------|
A|-------------------------------------------------------------------|
D|-------------------------------------------------------------------|

Rhythm:
E|-------------------------------------------------------------------|
B|-------------------------------------------------------------------|
G|-------------------------------------------------------------------|
D|-----3h5--3--------------------------------------------------------|
A|---------------3-4-5----3-4-5---------5--5--5--5--5-5-5-5----------|
D|--0----------------------------------------------------------------|


BRIDGE/SOLO:
Lead:
E|---------------------------------------------------------------------|
B|---------------------------------------------------------------------|
G|-10/15-------------/17---/19-------/14--------------11---------------|
D|---------------------------------------------------------------------|
A|---------------------------------------------------------------------|
D|---------------------------------------------------------------------|
Tremolo pick each note. The slides are further down, and start behind 14
                                                                      
Rhythm:                                                                
E|---------------------------------------------------------------------|
B|---------------------------------------------------------------------|
G|---------------------------------------------------------------------|
D|----8-8-8-8-8-8-8-8-5-5-5-5-5-5-5-5-0-0-0-0-0-0-0-0-0-0-0-0-0-0-0-0--|
A|----8-8-8-8-8-8-8-8-5-5-5-5-5-5-5-5-0-0-0-0-0-0-0-0-0-0-0-0-0-0-0-0--|
D|----8-8-8-8-8-8-8-8-5-5-5-5-5-5-5-5-0-0-0-0-0-0-0-0-0-0-0-0-0-0-0-0--|

Lead:
E|---------------------------------------------------------------------|
B|---------------------------------------------------------------------|
G|-10/15-------------/17---/19-------/14--------------13------12---(7)-|
D|---------------------------------------------------------------------|
A|---------------------------------------------------------------------|
D|---------------------------------------------------------------------|

Rhythm:                                                                
E|---------------------------------------------------------------------|
B|---------------------------------------------------------------------|
G|---------------------------------------------------------------------|
D|----8-8-8-8-8-8-8-8-5-5-5-5-5-5-5-5-0-0-0-0-0-0-0-0-0-0-0-0-0-0-0-0--|
A|----8-8-8-8-8-8-8-8-5-5-5-5-5-5-5-5-0-0-0-0-0-0-0-0-0-0-0-0-0-0-0-0--|
D|----8-8-8-8-8-8-8-8-5-5-5-5-5-5-5-5-0-0-0-0-0-0-0-0-0-0-0-0-0-0-0-0--|

There are harmonics played throughout the song, but I can't figure them out. 
If someone wants to point them out, feel free to. 

            
            
Suggest correction
Creating personal tab
Creating personal tab
You can edit any tab online and save it as your Personal.

You can edit, replace or remove any tab part or add personal notes – all changes will be seen only by you.

Personal tabs can be accessed anytime from any device, even offline.
Learn more »
comments
print report bad tab
5 comments total. Showing first comments.
-1 reply
ConorMack 10 Jan 26, 2016 04:12 AM

. cmon mate,, my gold fish can tab better than this,, fam please dont quit your day job lol

0 reply
ToaAckar 474 Jan 26, 2016 08:59 PM

I know it's kinda half-assed, but I know some parts are definitely correct. The main thing I had trouble with was the high notes in between each chord. They sounded like harmonics but I'm not sure where they're supposed to be.

0 reply
Shinedownfan123 10 Apr 05, 2016 06:45 AM, edited at 10:46 am

On the intro I'm pretty sure the 6 is on the high E string and the 5 is on the B string but I could be wrong.

guest
You may want to rate the tab now too:
select rating
Wanna post a correction for this tab? Suggest correction