Oops, an error
Loading. Please wait.
We have an official Save Me tab made by UG professional guitarists. Check out the tab »
×
34,344 views 3 this week
5 commentsread comments
1 2 3 4 5
x 10
add to favorites
×
Save as Personal and add changes to this tab that will be seen only by you. Learn more ›
×
You can save this tab as Personal to edit and correct it or add notes. All changes will be seen only by you. Learn more »
launch autoscroll
font size
0
reset
how to read this tab
guitar tuner
backing track
0:00
0:00
edit
Autoscroll
slow
fast
+/-
esc
set tempo
stop
INTRO

e----------------------------xxxxxxxx-----------------|
b-----------------55555555---22222222---000---22222---|
g------44444444---77777777---22222222---444---33333---|
d------44444444---77777777---22222222---555---44444---|
a------22222222---55555555---00000000---555---44444---|
D-----------------------------------------------------| X2

VERSE 1 (00:16)

e----------------------------xxxxxxxx-----------------|
b-----------------55555555---22222222---000---22222---|
g--4---44444444---77777777---22222222---444---33333---|
d--2---44444444---77777777---22222222---555---44444---|
a--2---22222222---55555555---00000000---555---44444---|
D-----------------------------------------------------| X3

       I got a candle....

(00:41)
e----------------------------------------------------|
b----------------55555555----------------------------|
g-----44444444---77777777---66666666---333---33333---|
d-----44444444---77777777---66666666---333---33333---|
a-----22222222---55555555---44444444---222---11111---|
D----------------------------------------------------|

        A touch of concrete.....

CHORUS (00:49)

e----------------------------------------------------|
b----------------------------------------------------|
g-----44444444---------------------------------------|
d-----44444444---44444444---77777777---555---44444---|
a-----22222222---44444444---77777777---555---44444---|
D----------------44444444---77777777---555---44444---|

        Someone save me......

(00:58)
e----------------------------------------------------|
b----------------------------------------------------|
g-----44444444---------------------------------------|
d-----44444444---44444444---77777777---555---44444---|
a-----22222222---44444444---77777777---555---44444---|
D----------------44444444---77777777---555---44444---|

        Please just save me.....

VERSE 2 (1:06)

e----------------------------xxxxxxxx-----------------|
b-----------------55555555---22222222---000---22222---|
g--4---44444444---77777777---22222222---444---33333---|
d--2---44444444---77777777---22222222---555---44444---|
a--2---22222222---55555555---00000000---555---44444---|
D-----------------------------------------------------|

(1:14)
e----------------------------xxxxxxxx-----------------|
b-----------------55555555---22222222---000---22222---|
g--4---44444444---77777777---22222222---444---33333---|
d--2---44444444---77777777---22222222---555---44444---|
a--2---22222222---55555555---00000000---555---44444---|
D-----------------------------------------------------| X3

         How did I get......

(1:39)
e----------------------------------------------------|
b----------------55555555----------------------------|
g-----44444444---77777777---66666666---333---33333---|
d-----44444444---77777777---66666666---333---33333---|
a-----22222222---55555555---44444444---222---11111---|
D----------------------------------------------------|

        How could I.....


CHORUS (1:47)


VERSE 3 (2:12)

e---------------------------xxxxxxxx-------------------|
b----------------55555555---22222222---000---22222-----|
g-----44444444---77777777---22222222---444---33333-----|
d-----44444444---77777777---22222222---555---44444-----|
a-----22222222---55555555---00000000---555---44444-----|
D------------------------------------------------------|

        Jump in the water.....

(2:20)
e---------------------------xxxxxxxx-------------------|
b----------------55555555---22222222---000---22222-----|
g-----44444444---77777777---22222222---444---33333-----|
d-----44444444---77777777---22222222---555---44444-----|
a-----22222222---55555555---00000000---555---44444-----|
D------------------------------------------------------|

        Jump on the alter.....

(2:28)
e---------------------------xxxxxxxx-------------------|
b----------------55555555---22222222---000---22222-----|
g-----44444444---77777777---22222222---444---33333-----|
d-----44444444---77777777---22222222---555---44444-----|
a-----22222222---55555555---00000000---555---44444-----|
D------------------------------------------------------|

        The hardest question.....


(2:37)
e---------------------------xxxxxxxx------------------|
b-----------------5555555---22222222---000---22222----|
g-----44444444----7777777---22222222---444---33333----|
d-----44444444----7777777---22222222---555---44444----|
a-----22222222----5555555---00000000---555---44444----|
D-----------------------------------------------------|

  Is Why.....               Why....


(2:45)
CHORUS


(3:02)

e----------------------------------------------------|
b----------------------------------------------------|
g-----44444444---------------------------------------|
d-----44444444---44444444---77777777---555---44444---|
a-----22222222---44444444---77777777---555---44444---|
D----------------44444444---77777777---555---44444---|

       Sombody save me.....

(3:10)
e-------------------------------------------------------------|
b-------------------------------------------------------------|
g-----44444444------------------------------------------------|
d-----44444444---44444444---77777777---555---44444----4444444-|
a-----22222222---44444444---77777777---555---44444----4444444-|
D----------------44444444---77777777---555---44444----2222222-|

Somebody.....    Somebody.... Please dont.......

            
            
Suggest correction
Creating personal tab
Creating personal tab
You can edit any tab online and save it as your Personal.

You can edit, replace or remove any tab part or add personal notes – all changes will be seen only by you.

Personal tabs can be accessed anytime from any device, even offline.
Learn more »
comments
print report bad tab
5 comments total. Showing first comments.
0 reply
Joe Welsh 52 Aug 26, 2006 03:10 PM

pretty close, on the A in the verse, there is a chord variation.

0 reply
Joe Welsh 52 Sep 10, 2006 01:40 PM

(INTRO)
e|---------0000-----------------------|
B|---------0000-----------------------|
G|--4444---7777---6666---4444---3333--|
D|--4444---7777---7777---5555---4444--|
A|--2222---5555---7777---5555---4444--|
E|----------------5555---3333---2222--| X2


(VERSE 1)
I got a candle..
e|--0----------0000-----------------------|
B|--0----------0000-----------------------|
G|--4---4444---7777---6666---4444---3333--|
D|--4---4444---7777---7777---5555---4444--|
A|--2---2222---5555---7777---5555---4444--|
E|--------------------5555---3333---2222--| X3

A touch of concrete..
e|---------0000-----------------------|
B|---------0000-----------------------|
G|--4444---7777---6666---4444---3333--|
D|--4444---7777---6666---4444---3333--|
A|--2222---5555---4444---2222---1111--|
E|------------------------------------|


(CHORUS)
Someone save me..
e|------------------------------------|
B|------------------------------------|
G|--4444---3333---6666---4444---3333--|
D|--4444---4444---7777---5555---4444--|
A|--2222---4444---7777---5555---4444--|
E|---------2222---5555---3333---2222--|

Please just save me..
e|------------------------------------|
B|------------------------------------|
G|--4444---3333---6666---4444---3333--|
D|--4444---4444---7777---5555---4444--|
A|--2222---4444---7777---5555---4444--|
E|---------2222---5555---3333---2222--|


e|---------0000------------------------|
B|---------0000------------------------|
G|--4444---7777---6666---4444---3333---|
D|--4444---7777---7777---5555---4444---|
A|--2222---5555---7777---5555---4444---|
E|----------------5555---3333---2222---|


(VERSE 2)
How did I get here..
e|--0----------0000------------------------|
B|--0----------0000------------------------|
G|--4---4444---7777---6666---4444---3333---|
D|--4---4444---7777---7777---5555---4444---|
A|--2---2222---5555---7777---5555---4444---|
E|--------------------5555---3333---2222---| X3

How could I love this..
e|------------0000-----------------------|
B|------------0000-----------------------|
G|-----4444---7777---6666---4444---3333--|
D|-----4444---7777---6666---4444---3333--|
A|-----2222---5555---4444---2222---1111--|
E|---------------------------------------|




(CHORUS)
Someone save me..
e|------------------------------------|
B|------------------------------------|
G|--4444---3333---6666---4444---3333--|
D|--4444---4444---7777---5555---4444--|
A|--2222---4444---7777---5555---4444--|
E|---------2222---5555---3333---2222--|

Please just save me..
e|------------------------------------|
B|------------------------------------|
G|--4444---3333---6666---4444---3333--|
D|--4444---4444---7777---5555---4444--|
A|--2222---4444---7777---5555---4444--|
E|---------2222---5555---3333---2222--|




(VERSE 3)
Jump in the water..
e|-------------0000------------------------|
B|-------------0000------------------------|
G|------4444---7777---6666---4444---3333---|
D|------4444---7777---7777---5555---4444---|
A|------2222---5555---7777---5555---4444---|
E|--------------------5555---3333---2222---|

Jump on the alter..
e|-------------0000------------------------|
B|-------------0000------------------------|
G|------4444---7777---6666---4444---3333---|
D|------4444---7777---7777---5555---4444---|
A|------2222---5555---7777---5555---4444---|
E|--------------------5555---3333---2222---|

The hardest question.....
e|-------------0000------------------------|
B|-------------0000------------------------|
G|------4444---7777---6666---4444---3333---|
D|------4444---7777---7777---5555---4444---|
A|------2222---5555---7777---5555---4444---|
E|--------------------5555---3333---2222---|

Is Why..
e|-------------0000------------------------|
B|-------------0000------------------------|
G|------4444---7777---6666---4444---3333---|
D|------4444---7777---7777---5555---4444---|
A|------2222---5555---7777---5555---4444---|
E|--------------------5555---3333---2222---|




(CHORUS)
Someone save me..
e|------------------------------------|
B|------------------------------------|
G|--4444---3333---6666---4444---3333--|
D|--4444---4444---7777---5555---4444--|
A|--2222---4444---7777---5555---4444--|
E|---------2222---5555---3333---2222--|

Please just save me..
e|------------------------------------|
B|------------------------------------|
G|--4444---3333---6666---4444---3333--|
D|--4444---4444---7777---5555---4444--|
A|--2222---4444---7777---5555---4444--|
E|---------2222---5555---3333---2222--|




(Outro)
Sombody save me..
e|------------------------------------|
B|------------------------------------|
G|--4444---3333---6666---4444---3333--|
D|--4444---4444---7777---5555---4444--|
A|--2222---4444---7777---5555---4444--|
E|---------2222---5555---3333---2222--|

Somebody save me, somebody save me, please dont erase me.
e|--------------------------------------0000-|
B|--------------------------------------0000-|
G|--4444---3333---6666---44

0 reply
Joe Welsh 52 Sep 10, 2006 01:41 PM

oops this is the last line

Somebody save me, somebody save me, please dont erase me.
e|--------------------------------------0000-|
B|--------------------------------------0000-|
G|--4444---3333---6666---4444---3333----4444-|
D|--4444---4444---7777---5555---4444----4444-|
A|--2222---4444---7777---5555---4444----2222-|
E|---------2222---5555---3333---2222---------|

guest
You may want to rate the tab now too:
select rating
Wanna post a correction for this tab? Suggest correction