Oops, an error
Loading. Please wait.
We have Chord Pro version of Second Chance.
It's the closest thing you can get to the original song and it has interactive parts. Check out the tab »
×
10,328 views 6 this week
no commentswrite comment
1 2 3 4 5
x 4
add to favorites
×
Save as Personal and add changes to this tab that will be seen only by you. Learn more ›
×
You can save this tab as Personal to edit and correct it or add notes. All changes will be seen only by you. Learn more »
launch autoscroll
font size
0
reset
guitar tuner
backing track
0:00
0:00
edit
Autoscroll
slow
fast
+/-
esc
set tempo
stop
Author
NOT IN DROP D TUNING
verse:2x
G--------------------------------------------------------|
D--------------------------------------------------------|
A33333333-66666666---------------------------------------|
E-----------------4444444444444444-----------------------|

pre-chorus
G--------------------------------------------------------|
D----------5-5-5-----------------------------------------|
A--8-8-8-33-3-3----6-6-6-66665555------------------------|
E66-6-6----------44-4-4----------------------------------|

G--------------------------------------------------------|
D----------5-5-5-3333333333333333------------------------|
A--8-8-8-33-3-3------------------------------------------|
E66-6-6--------------------------------------------------|

chorus:2x first part of chorus
G--------------------------------------------------------|
D--------------------------------------------------------|
A33333333-66666666-88888888------------------------------|
E--------------------------4444444444444444--------------|
stop at the line for the first chorus only after the line its for the 2nd and 3rd done
G----------------------------|---------------------------|
D----------------------------|---------------------------|
A33333333-66666666-888888888-|---------------------------|
E---------------------------4|4444444444444444-----------|

Bridge
G--------------------------------------------------------|
D--------------------------------------------------------|
A---------666-------------666----------------------------|
E111444444---6666611144444---66666-----------------------|

G--------------------------------------------------------|
D--------------------------------------------------------|
A--------------------------------------------------------|
E111-44444-6666666666666666------------------------------|

ending
G--------------------------------------------------------|
D--------------------------------------------------------|
A3333333388888888----------------------------------------|
E----------------4---------------------------------------|

the order:
verse
pre-chorus
chorus
verse
pre-chorus
chorus
bridge
chorus
ending

            
            
Suggest correction
Creating personal tab
Creating personal tab
You can edit any tab online and save it as your Personal.

You can edit, replace or remove any tab part or add personal notes – all changes will be seen only by you.

Personal tabs can be accessed anytime from any device, even offline.
Learn more »
comments
print report bad tab
guest
You may want to rate the tab now too:
select rating
Wanna post a correction for this tab? Suggest correction