Oops, an error
Loading. Please wait.
We have an official Sound Of Madness tab made by UG professional guitarists. Check out the tab »
×

Sound Of Madness bass

36,294 views 18 this week
4 commentsread comments
1 2 3 4 5
x 19
add to favorites
×
Save as Personal and add changes to this tab that will be seen only by you. Learn more ›
×
You can save this tab as Personal to edit and correct it or add notes. All changes will be seen only by you. Learn more »
launch autoscroll
font size
0
reset
guitar tuner
backing track
0:00
0:00
edit
Autoscroll
slow
fast
+/-
esc
set tempo
stop
Guitar plays by itself until :24

VERSE:
G|------------------------------------------------------------------------|
D|-3---------------------------6-6--6-5-3---3-----------------------------|
A|---5----5---5---5---5---5---------------5---5----5---5---5--------------|
D|------0---0---0---0---0------------------------0---0---0---6666-55-30---|

G|------------------------------------------------------------------------|
D|-3------------------3---------6-6--6-5-3---3----------------------------|
A|---5-----5---5---5----5----5-------------5---5---5---5---5--------------|
D|-------0---0---0---------0---------------------0---0---0---6666-55-30---|

G|-------------------------------------------------------------------------|
D|-3------------------3---------6-6--6-5-3---3----------------RESTRESTREST-|
A|---5-----5---5---5----5----5-------------5---5---5---5---5--RESTRESTREST-|
D|-------0---0---0---------0---------------------0---0---0----RESTRESTREST-|

CHORUS:
G|------------------------------------------------------------------|
D|------------------------------------------------------------------|
A|-1-1-1-1-1-1-1-1---------------------------------3-3-3-3-3-3-3-3--|
D|-----------------0-0-0-0-0-0-0-0-3-3-3-3-3-3-3-3------------------|

G|------------------------------------------------------------------|
D|------------------------------------------------------------------|
A|-1-1-1-1-1-1-1-1---------------------------------3-3-3-3-3-3-3-3--|
D|-----------------0-0-0-0-0-0-0-0-3-3-3-3-3-3-3-3------------------|

G|----------------------------|
D|-6-6-6-6-6-6-6-6-5-3-0-3----|
A|-------------------------5--|
D|----------------------------|

VERSE:
G|------------------------------------------------------------------------|
D|-3---------------------------6-6--6-5-3---3-----------------------------|
A|---5----5---5---5---5---5---------------5---5----5---5---5--------------|
D|------0---0---0---0---0------------------------0---0---0---6666-55-30---|

G|------------------------------------------------------------------------|
D|-3------------------3---------6-6--6-5-3---3----------------------------|
A|---5-----5---5---5----5----5-------------5---5---5---5---5--------------|
D|-------0---0---0---------0---------------------0---0---0---6666-55-30---|

G|-------------------------------------------------------------------------|
D|-3------------------3---------6-6--6-5-3---3----------------6-6--6-5-3---|
A|---5-----5---5---5----5----5-------------5---5---5---5---5-------------5-|
D|-------0---0---0---------0---------------------0---0---0-----------------|


CHORUS:
G|------------------------------------------------------------------|
D|------------------------------------------------------------------|
A|-1-1-1-1-1-1-1-1---------------------------------3-3-3-3-3-3-3-3--|
D|-----------------0-0-0-0-0-0-0-0-3-3-3-3-3-3-3-3------------------|

G|------------------------------------------------------------------|
D|------------------------------------------------------------------|
A|-1-1-1-1-1-1-1-1---------------------------------3-3-3-3-3-3-3-3--|
D|-----------------0-0-0-0-0-0-0-0-3-3-3-3-3-3-3-3------------------|

G|----------------------------|
D|-6-6-6-6-6-6-6-6-5-3-0-3----|
A|-------------------------5--|
D|----------------------------|

SOLO:
G|--------------------------------------------------------------------|
D|------------5754-------------5754-------------5754------------------|
A|-0-0-0-0-0------5-3-3-3-3-3------5----------------5-----------------|
D|-----------------------------------5-5-5-5-5--------0-0-0-0-0-0-0-0-|

G|------------------------------------------------------------------------|
D|------------5754-------------5754--------------------------6-6--6-5-3---|
A|-0-0-0-0-0------5-3-3-3-3-3------5------------------------------------5-|
D|-----------------------------------5-5-5-5-5-5-5-5-8-8-8-8--------------|

BRIDGE:
G|-------------------------------------------------------------------|
D|-------------------------------------------------------------------|
A|-1--------------------3------1----------------------3--------------|
D|-------0-------3--------------------0-------3----------------------|

G|-----------------------------|
D|-6-6-6-6-6-6-6--6-5-3-0-3----|
A|--------------------------5--|
D|-----------------------------|

CHORUS:
G|------------------------------------------------------------------|
D|------------------------------------------------------------------|
A|-1-1-1-1-1-1-1-1---------------------------------3-3-3-3-3-3-3-3--|
D|-----------------0-0-0-0-0-0-0-0-3-3-3-3-3-3-3-3------------------|

G|------------------------------------------------------------------|
D|------------------------------------------------------------------|
A|-1-1-1-1-1-1-1-1---------------------------------3-3-3-3-3-3-3-3--|
D|-----------------0-0-0-0-0-0-0-0-3-3-3-3-3-3-3-3------------------|

G|------------------------------------------------------------------|
D|------------------------------------------------------------------|
A|-1-1-1-1-1-1-1-1---------------------------------3-3-3-3-3-3-3-3--|
D|-----------------0-0-0-0-0-0-0-0-3-3-3-3-3-3-3-3------------------|

G|-----------------------------------------------------------------------------|
D|--------------------------------------------------6-6-6-6-6-6-6-6-5-3-0-3----|
A|-1-1-1-1-1-1-1-1----------------------------------------------------------5--|
D|-----------------0-0-0-0-0-0-0-0-3-3-3-3-3-3-3-3-----------------------------|

OUTRO:
G|------------------------------------------------------------|
D|-3---------------------------6-6--6-5-3---3-----------------|
A|---5----5---5---5---5---5---------------5---5----5---5---5--|
D|------0---0---0---0---0------------------------0---0---0----|

G|--------------------------------------------|
D|-6-6--6-5-3-0-3---6-6--6-5-3-0-3----3-------|
A|----------------5----------------5----------|
D|--------------------------------------0-----|

            
            
Suggest correction
Creating personal tab
Creating personal tab
You can edit any tab online and save it as your Personal.

You can edit, replace or remove any tab part or add personal notes – all changes will be seen only by you.

Personal tabs can be accessed anytime from any device, even offline.
Learn more »
comments
print report bad tab
4 comments total. Showing first comments.
+1 reply
Kooldac 10 Jan 11, 2009 01:04 PM

Ver 1 of the guitar tab is almost spot on and what the bass should be following fairly closely. Other than solo and some bass fills, they are identical.

Chorus measures have a bass fill at the end that I think is the same as the fill during the guitar solo. Its easy to hear where it is. Also the last D3 A5 combination to the chorus should be omitted. Its a repetition of the upcoming verse.

Lastly, the outro has too many notes.

G|---------------------------------|
D|-6-6--6-5-3-0--6-6--6-5-3-0--3---|
A|---------------------------------|
D|-------------------------------0-|

Other than that, pretty great tab. 5 stars from me

0 reply
Smackenbob 30 Jun 30, 2009 11:34 AM

chorus is wrong idk what it is but its wrong. listen to the bass play the sixteenth notes when the chorus starts over

+1 reply
Guitarist117 123 Dec 11, 2009 10:02 AM

chorus
|----------------------------------------------------------------------|
|---------------------------------------------------------------3------|
|-1-1-1-1-1-1-1-1---------------------------------3-3-3-3-0-3h5--5p3-0-|
|-----------------0-0-0-0-0-0-0-0-3-3-3-3-3-3-3-3----------------------|

for the first time through

guest
You may want to rate the tab now too:
select rating
Wanna post a correction for this tab? Suggest correction