Oops, an error
Loading. Please wait.
We have an official Sound Of Madness tab made by UG professional guitarists. Check out the tab »
×

Sound Of Madness bass

13,033 views 9 this week
3 commentsread comments
1 2 3 4 5
1 last vote to show rating
add to favorites
×
Save as Personal and add changes to this tab that will be seen only by you. Learn more ›
×
You can save this tab as Personal to edit and correct it or add notes. All changes will be seen only by you. Learn more »
launch autoscroll
font size
0
reset
guitar tuner
backing track
0:00
0:00
edit
Autoscroll
slow
fast
+/-
esc
set tempo
stop
Found a video on YouTube of Eric playing this song, so I decided to try and tab it 
out for all the bass players out there...this is how I took it


Intro 0:25
G|--------------------------------------------------------------|
D|------------------------------6--6--6-5-----------------------|
A|-----------/5--/5--/5--/5--/5-----------8-5-8b-5---/5--/5--/5-|
D|-3b--0--0----0---0---0---0-----------------------0---0---0----|


G|----------------------------|
D|----------------------------|
A|----------------------------|
D|-6--6--6--6-6-5--5-5--3b--0-|

Verse 1 0:35
G|---------------------------------------------|
D|------------------------------------3--------|
A|-/8--5----/5------------/8--5---/5-----------|
D|--------0----3--3--2--0-------0----3-3--2--0-|
   "Another loose cannon..."

G|----------------------------------------------------|
D|----------------------------------------------------|
A|-/8--5----/5----------------------------------------|
D|--------0----3--3--2--0--6--6--6--6-6-5--5-5--3b--0-|

G|----------------------------------------------|
D|-------------------------------------3--------|
A|-/8--5----/5------------/8--5-----5-----------|
D|--------0----3--3--2--0--------0----3-3--2--0-|

G|--------------------------|
D|--------------------------|
A|-/8--5-----5--------------|
D|--------0----3--3--2-stop-|

Chorus 1 0:54 - 0:55 (somewhere in between there)
G|-----------------------------------------------------------------------|
D|---------------------------------------------------------------3-------|
A|-1-1-1-1-1-1-1-1---------------------------------3-3-3-3-0-3h5---5p3-0-|
D|-----------------0-0-0-0-0-0-0-0-3-3-3-3-3-3-3-3-----------------------|
       "I created..."

G|-----------------------------------------------------------------|
D|-----------------------------------------------------------------|
A|-1-1-1-1-1-1-1-1---------------------------------3-3-3-3-3-3-3-3-|
D|-----------------0-0-0-0-0-0-0-0-3-3-3-3-3-3-3-3-----------------|

G|----------------|
D|-/6-6-/6-6-/6-6-|
A|----------------|
D|----------------|

Post Chorus (i guess) 1:17
G|-----------------------------------|
D|-6-5-------------------------------|
A|-----8-5-8b-5---/5--/5--/5--/5--/5-|
D|--------------0---0---0---0---0----|

G|------------------------------------------------------------|
D|-6--6--6-5--------------------------------------------------|
A|-----------8-5-8b-5---/5--/5--/5----------------------------|
D|--------------------0---0---0----6--6--6--6-6-5--5-5--3b--0-|

Verse 2 1:28
G|---------------------------------------------|
D|------------------------------------3--------|
A|-/8--5----/5------------/8--5---/5-----------|
D|--------0----3--3--2--0-------0----3-3--2--0-|
   "I'm so sick..."

G|----------------------------------------------------|
D|----------------------------------------------------|
A|-/8--5----/5----------------------------------------|
D|--------0----3--3--2--0--6--6--6--6-6-5--5-5--3b--0-|

G|---------------------------------------------|
D|------------------------------------3--------|
A|-/8--5----/5------------/8--5---/5-----------|
D|--------0----3--3--2--0-------0----3-3--2--0-|

G|---------------------------------------|
D|------------------------/6--6--6-5-----|
A|-/8--5----/5-----------------------8-5-|
D|--------0----3--3--2--0----------------|

Chorus 2 1:48
G|-----------------------------------------------------------------------|
D|---------------------------------------------------------------3-------|
A|-1-1-1-1-1-1-1-1---------------------------------3-3-3-3-0-3h5---5p3-0-|
D|-----------------0-0-0-0-0-0-0-0-3-3-3-3-3-3-3-3-----------------------|
       "I created..."

G|-----------------------------------------------------------------|
D|-----------------------------------------------------------------|
A|-1-1-1-1-1-1-1-1---------------------------------3-3-3-3-3-3-3-3-|
D|-----------------0-0-0-0-0-0-0-0-3-3-3-3-3-3-3-3-----------------|

G|-------------------------|
D|-/6-6-/6-6-/6-6--6-5-----|
A|---------------------8-5-|
D|-------------------------|

Solo 2:11
G|--------------------------------------------------------------------|
D|---------------7-5-------------------7-5--------------------7-5-----|
A|-0-00000000-/7-----7-5-3-33333333-/7-----7-5-------------/7-----7-5-|
D|---------------------------------------------5-555555555------------|

G|------------------------------------------------------------|
D|------------------------------7-5-------------------7-5-----|
A|------------33220000000000-/7-----7-5-3-33333333-/7-----7-5-|
D|-00000000000------------------------------------------------|

G|-------------------------------------------|
D|-------------------------/6--6--6-5--------|
A|----------------01-1-1-1------------8-5-1~-|
D|-5-5555555553535---------------------------|
                                             "I created..."
After Solo 2:32
G|----------------------------------------------------|
D|-7~---------------------------10~-------------------|
A|-5~----------------------------8~-------------------|
D|----------------------------------------------------|
  "Sound of madness...."     "Book on pain..."

G|----------------------------------------------------------------|
D|-5~---------------------------3~--------------------------------|
A|-3~---------------------------1~--------------------------------|
D|---------------------------------------------------0~-----------|
   "Still here..."              "...That the darkest hour..."

G|-------------------------------------------------------|
D|-------------------------------------------------------|
A|----------------------3-3-3-3-3-3-3-3-3-3-3-3-3-3-3-3--|
D|-3~----------------------------------------------------|
  "...You can sleep..."

G|-------------------------|
D|-/6-6-/6-6-/6-6--6-5-----|
A|---------------------8-5-|
D|-------------------------|

Chorus 3 2:57
G|-----------------------------------------------------------------------|
D|---------------------------------------------------------------3-------|
A|-1-1-1-1-1-1-1-1---------------------------------3-3-3-3-0-3h5---5p3-0-|
D|-----------------0-0-0-0-0-0-0-0-3-3-3-3-3-3-3-3-----------------------|
       "I created..."

G|-----------------------------------------------------------------|
D|-----------------------------------------------------------------|
A|-1-1-1-1-1-1-1-1---------------------------------3-3-3-3-3-3-3-3-|
D|-----------------0-0-0-0-0-0-0-0-3-3-3-3-3-3-3-3-----------------|

Chorus 3 (part 2) 3:18
G|--------------------------------------------------------------------------|
D|----------------3-----------------------------------------------3-5-------|
A|-1-1-1-1-1-1-/5-----------------------------------3-3-3-3-0-3h5-----5p3-0-|
D|------------------0-0-0-0-0-0-0-2-3-3-3-3-3-3-3-3-------------------------|

G|--------------------------------------------------------------------------|
D|----------------3---------------------------------/6-6-/6-6-/6-6--6-5-----|
A|-1-1-1-1-1-1-/5-------------------------------------------------------8-5-|
D|------------------0-0-0-0-0-0-0-2-3-3-3-3-3-3-3-3-------------------------|

Outro 2:39
G|-------------------------------------------|
D|----------------------------/6--6--6-5-----|
A|-8b-5---/5--/5--/5--/5--/5-------------8-5-|
D|------0---0---0---0---0--------------------|

G|-------------------------------------------|
D|----------------------------/6--6--6-5-----|
A|-8b-5---/5--/5--/5--/5--/5-------------8-5-|
D|------0---0---0---0---0--------------------|

G|---------------------|
D|-/6--6--6-5----------|
A|------------8-5------|
D|----------------3b-0-|

            
            
Suggest correction
Creating personal tab
Creating personal tab
You can edit any tab online and save it as your Personal.

You can edit, replace or remove any tab part or add personal notes – all changes will be seen only by you.

Personal tabs can be accessed anytime from any device, even offline.
Learn more »
Give kudos to tab author, rate the tab!
1 2 3 4 5
comments
print report bad tab
3 comments total.
0 reply
Spartan117sk 30 Dec 11, 2009 07:09 AM

sounds great looks just like he plays it if not its damn close, slides make it a bit of a bitch though haha

0 reply
Hana Hardcore 10 Jan 27, 2010 04:54 AM

see the bass chords...do you strum them like you would a guitar or what...sorry never came across them before..

0 reply
Guitarist117 123 Mar 24, 2010 06:18 AM

yeah it's just like the guitar chords

guest
You may want to rate the tab now too:
select rating
Wanna post a correction for this tab? Suggest correction