Oops, an error
Loading. Please wait.

Trade Yourself In tab

version 3
version 3

Whole song

Interactive

1,669 views 1 this week
4 commentsread comments
1 2 3 4 5
x 4
add to favorites
×
Save as Personal and add changes to this tab that will be seen only by you. Learn more ›
×
You can save this tab as Personal to edit and correct it or add notes. All changes will be seen only by you. Learn more »
launch autoscroll
font size
0
reset
how to read this tab
guitar tuner
edit
Autoscroll
slow
fast
+/-
esc
set tempo
stop
Trade yourself in
This song is awsome it took me a while to get it. I think this tab is right. Have fun

Updated-Leave comments so I can know how I did.

Intro
E|---------------------------------------------------------------------|
B|---------------------------------------------------------------------|
G|--------------------------------------------------------3-----3-----3|
D|0--3333-2222------0--3333-2222------0--3333-22--55---2--2--2--2--2--2|
A|0------------3333-0------------3333-0---------33--33-2-----2-----2---|
D|0-----------------0-----------------0----------------2-----2-----2---|

Verse
E|-----------------------------------------------------------------|
B|-----------------------------------------------------------------|
G|-------------------------------------------------------------0---|
D|-7---5-7---2h3p2p0p-----7---5-7--3-3-7---5-7---2h3p2p0p--------3-|
A|-5---3-5-----------3p0--5---3-5--3-3-5---3-5-----------3p0--2-1--|
D|---------------------------------3-3-----------------------------|

E|------------------------------------------------------------------|
B|------------------------------------------------------------------|
G|------------------------------------------------------------0-----|
D|-7---5-7---2h3p2p0p-----7---5-7--3b-7---5-7---2h3p2p0p--------3---|
A|-5---3-5-----------3p0--5---3-5-----5---3-5-----------3p0--2-1----|
D|------------------------------------------------------------------|

E|-----------------------------------------------------------------|
B|-----------------------------------------------------------------|
G|-------------------------------------------------------------0---|
D|-7---5-7---2h3p2p0p-----7---5-7--3-3-7---5-7---2h3p2p0p--------3-|
A|-5---3-5-----------3p0--5---3-5--3-3-5---3-5-----------3p0--2-1--|
D|---------------------------------3-3-----------------------------|

Pre-chrous
E|-------------------------------------------------------|
B|-------3--3-----------------3--3-----------------------|
G|-------0--0--3--3--5--------0--0--3--3--3--3--55555555-|
D|-3--3--0--0--3--3--5--3--3--0--0--3--3--3--3--55555555-|
A|-3--3--0--0--1--1--3--3--3--0--0--1--1--1--1--33333333-|
D|-3--3--5--5-----------3--3--5--5-----------------------|

Chorus                           x2
E|----------------------------------|
B|-3---3-------1---3---3------------|
G|-2---0---3---2---0---0---33333333-|
D|-0---0---3---2---0---0---33333333-|
A|-0---0---1-------0---0---11111111-|
D|-0---3-----------5---3------------|

Verse 
E|-----------------------------------------------------------------|
B|-----------------------------------------------------------------|
G|-------------------------------------------------------------0---|
D|-7---5-7---2h3p2p0p-----7---5-7--3-3-7---5-7---2h3p2p0p--------3-|
A|-5---3-5-----------3p0--5---3-5--3-3-5---3-5-----------3p0--2-1--|
D|---------------------------------3-3-----------------------------|

E|------------------------------------------------------------------|
B|------------------------------------------------------------------|
G|------------------------------------------------------------0-----|
D|-7---5-7---2h3p2p0p-----7---5-7--3b-7---5-7---2h3p2p0p--------3---|
A|-5---3-5-----------3p0--5---3-5-----5---3-5-----------3p0--2-1----|

D|------------------------------------------------------------------|
E|-----------------------------------------------------------------|
B|-----------------------------------------------------------------|
G|-------------------------------------------------------------0---|
D|-7---5-7---2h3p2p0p-----7---5-7--3-3-7---5-7---2h3p2p0p--------3-|
A|-5---3-5-----------3p0--5---3-5--3-3-5---3-5-----------3p0--2-1--|
D|---------------------------------3-3-----------------------------|
Pre-chorus
E|-------------------------------------------------------|
B|-------3--3-----------------3--3-----------------------|
G|-------0--0--3--3--5--------0--0--3--3--3--3--55555555-|
D|-3--3--0--0--3--3--5--3--3--0--0--3--3--3--3--55555555-|
A|-3--3--0--0--1--1--3--3--3--0--0--1--1--1--1--33333333-|
D|-3--3--5--5-----------3--3--5--5-----------------------|

chorus                           x2
E|----------------------------------|
B|-3---3-------1---3---3------------|
G|-2---0---3---2---0---0---33333333-|
D|-0---0---3---2---0---0---33333333-|
A|-0---0---1-------0---0---11111111-|
D|-0---3-----------5---3------------|

Intro
E|---------------------------------------------------------------------|
B|---------------------------------------------------------------------|
G|--------------------------------------------------------3-----3-----3|
D|0--3333-2222------0--3333-2222------0--3333-2222-----2--2--2--2--2--2|
A|0------------3333-0------------3333-0-----------3333-2-----2-----2---|
D|0-----------------0-----------------0----------------2-----2-----2---|

E|---------------------------------------------------------------------|
B|---------------------------------------------------------------------|
G|--------------------------------------------------------3-----3-----3|
D|0--3333-2222------0--3333-2222------0--3333-22--55---2--2--2--2--2--2|
A|0------------3333-0------------3333-0---------33--33-2-----2-----2---|
D|0-----------------0-------------------0--------------2-----2-----2---|

solo
E|---------------------------------8-8-8-8-8-8-8-8-7-7-7-7-5-5-5-5----|
B|-----------------6-6-6-6-6-6-6-6---------------------------------8b-|
G|-7-7-7-7-7-7-7-7----------------------------------------------------|
D|--------------------------------------------------------------------|
A|--------------------------------------------------------------------|
D|--------------------------------------------------------------------|

E|----------------------------------------------------------------|
B|-6h8p6h8p6-----------------------------------------------10-13b-|
G|-----------7p5h7p5h7------10-12-12b-10--10-12-12b---10-12-------|
D|-----------------------/12------------12---------/12------------|
A|----------------------------------------------------------------|
D|----------------------------------------------------------------|

Chorus                           x4
E|----------------------------------|
B|-3---3-------1---3---3------------|
G|-2---0---3---2---0---0---33333333-| 
D|-0---0---3---2---0---0---33333333-|
A|-0---0---1-------0---0---11111111-|
D|-0---3-----------5---3------------|

Intro
E|---------------------------------------------------------------------|
B|---------------------------------------------------------------------|
G|--------------------------------------------------------3-----3-----3|
D|0--3333-2222------0--3333-2222------0--3333-2222-----2--2--2--2--2--2|
A|0------------3333-0------------3333-0-----------3333-2-----2-----2---|
D|0-----------------0-----------------0----------------2-----2-----2---|

The End

            
            
Suggest correction
Creating personal tab
Creating personal tab
You can edit any tab online and save it as your Personal.

You can edit, replace or remove any tab part or add personal notes – all changes will be seen only by you.

Personal tabs can be accessed anytime from any device, even offline.
Learn more »
comments
print report bad tab
4 comments total. Showing first comments.
0 reply
weber3 10 Jun 04, 2008 08:13 PM

nicely done

0 reply
Lovemonk69 83 Aug 17, 2008 02:47 PM

Well done man, I like this tab it's good!

0 reply
jumojer 61 Oct 10, 2008 07:23 AM

good tab men but wth the song it sound more like drop C than drop D
tunned down 1 step your guitar and 2 step your biggest string and thats it it sound better with the song

great continue like that

guest
You may want to rate the tab now too:
select rating
Wanna post a correction for this tab? Suggest correction