Oops, an error
Loading. Please wait.

What A Shame bass

version 1
version 1

Whole song

Interactive

5,881 views 12 this week
2 commentsread comments
1 2 3 4 5
x 3
add to favorites
×
Save as Personal and add changes to this tab that will be seen only by you. Learn more ›
×
You can save this tab as Personal to edit and correct it or add notes. All changes will be seen only by you. Learn more »
launch autoscroll
font size
0
reset
guitar tuner
edit
Autoscroll
slow
fast
+/-
esc
set tempo
stop
Author
"What A Shame" - Shinedown

Tuning : Drop D

Verse
G|---------------------------------------------------------|
D|---------------------------------------------------------|
A|--------------------3--3--3-3--3-3--3---6---6-6-6--6--6--|
D|-3--3--3-3--3-3--3---------------------------------------|

Pre-Chorus
G|-------------------------------------------------|
D|-------------------------------------------------|
A|-1--1--1-1--1--4--4--4-4--4---3-3-3-3---6-6-6-6--|
D|-------------------------------------------------|

Chorus
G|---------------------------------------------------------------|
D|---------------------------------------------------------------|
A|---------------------------------------------------------------|
D|-3--3--3-3-3--3---6--6--6-6-6--6--1--1--1-1--1--1-1--1--1-1--1-| x3

End Chorus
G|---------------------------------|
D|---------------------------------|
A|-4-4-4-4-4-4-4-4-3-3-3-3-3-3-3-3-|
D|---------------------------------|

Verse
Pre-Chorus
Chorus
End-Chorus

End-Chorus 2
G|----------------------------------|
D|----------------------------------|
A|----------------------------------|
D|-8-8-6-8-8-6-8-8-6-8-8-6-8-8-8-8--|

Bridge x4
G|--------------------------------------------|
D|--------------------------------------------|
A|-0~----2~-----3~-----7----5----5----5-5-5-5-|
D|--------------------------------------------|

Bridge 2
G|---------------------------------------|
D|---------------------------------------|
A|-3--3--3--3--3-3-3----5--5--5--5-5-5-5-|
D|---------------------------------------|

Bridge 3
G|-------------------------------------------------------------------------------|
D|-------------------------------------------------------------------------------|
A|-5-5-5-5-6-6-6-6-8-8-8-8-10-10-10-10-12-12-12-12-14-14-14-14-15-15-15-15-15-15-|
D|-------------------------------------------------------------------------------|

------------------------------|
------------------------------|
15-15-15-15-15-15-15-15-15-15-|
------------------------------|

Chorus

            
            
Suggest correction
Creating personal tab
Creating personal tab
You can edit any tab online and save it as your Personal.

You can edit, replace or remove any tab part or add personal notes – all changes will be seen only by you.

Personal tabs can be accessed anytime from any device, even offline.
Learn more »
Give kudos to tab author, rate the tab!
1 2 3 4 5
comments
print report bad tab
2 comments total.
+1 reply
wesselrockt 194 Sep 04, 2012 11:17 AM

correction verse:
G|---------------------------------------------------------|
D|---------------------------------------------------------|
A|----------------------------------------6---6-6-6--6--6--|
D|-3--3--3-3--3-3--3--6--6--6-6--6-6--6--------------------|

0 reply
MasterFailure 681 Jan 15, 2014 10:27 PM

I'm not sure, but I think the bass doesn't play the bridge 3 exactly like the guitars, I think that sound like this:

G|-------------------------------------------------------------------|
D|-------------------------------------------------------------------|
A|-5-5-5-5-6-6-6-6-8-8-8-8-10-10-10-10-12-12-12-12-14-14-14-14-15~~~-|
D|-------------------------------------------------------------------|

I know, It's a little detail. And once again, I'm not sure, 'cause the bass is a little hard to hear at this section.

And I agree with wesslrockt, verse sounds perfect like that.

guest
You may want to rate the tab now too:
select rating
Wanna post a correction for this tab? Suggest correction