Oops, an error
Loading. Please wait.

What A Shame tab

version 1
version 1

Whole song

Interactive

32,609 views 21 this week
3 commentsread comments
1 2 3 4 5
x 10
add to favorites
×
Save as Personal and add changes to this tab that will be seen only by you. Learn more ›
×
You can save this tab as Personal to edit and correct it or add notes. All changes will be seen only by you. Learn more »
launch autoscroll
font size
0
reset
how to read this tab
guitar tuner
edit
Autoscroll
slow
fast
+/-
esc
set tempo
stop
This is "What a Shame" from the album "The sound of Madness"
I think is the best song of entire album and one of the most beautiful song of Shinedown

Tuning: Drop D (D A D G B E)


E|-----------------------------------------------------|
B|-----------------------------------------------------|
G|-----------------------------------------------------|
D|-----6----6---6/5---5---5------------8--------3---3--|
A|---3----3---3-----3---3---3--------6--------1---1---1|
D|-3--------------------------3/6-6------6\1-----------|


E|-----------------------------------------------------|
B|-----------------------------------------------------|
G|-----------------------------------------------------|
D|-----6----6---6/5---5---5------------8---------------|
A|---3----3---3-----3---3---3--------6-----------------|
D|-3--------------------------3/6-6------6\1--1--------|



Chorus:

E|------------------------------------------------------------|
B|------------------------------------------------------------|
G|------------------------------------------------------------|
D|-3---6---1-1-----3-3-3-3-3-3-3-3-6-6-6-6-6-6-6-6-1-1-1-1-1-1|
A|-3---6---1-1-----3-3-3-3-3-3-3-3-6-6-6-6-6-6-6-6-1-1-1-1-1-1|
D|-3---6---1-1-----3-3-3-3-3-3-3-3-6-6-6-6-6-6-6-6-1-1-1-1-1-1|

E|------------------------------------------------------------| 
B|------------------------------------------------------------| 
G|------------------------------------------------------------|
D|-1-1-1-1-1-1-1-1-1-1----------------------------------------|
A|-1-1-1-1-1-1-1-1-1-1----------------------------------------|
D|-1-1-1-1-1-1-1-1-1-1----------------------------------------|

            
            
Suggest correction
Creating personal tab
Creating personal tab
You can edit any tab online and save it as your Personal.

You can edit, replace or remove any tab part or add personal notes – all changes will be seen only by you.

Personal tabs can be accessed anytime from any device, even offline.
Learn more »
comments
print report bad tab
3 comments total.
0 reply
Kynyster_K 66 Jul 09, 2008 11:40 AM

pretty good intro

0 reply
Lovemonk69 83 Jul 12, 2008 11:07 AM

Yes, sounds really good.

0 reply
stonewall_39 181 Jul 13, 2008 02:58 PM

Are you for real? do you have to go and vote 1 star on the other more complete tab for this song? Grow up a little. Slow the song down, and the intro/verse alternates using the 3rd fret on the low D string, not the A string.

guest
You may want to rate the tab now too:
select rating
Wanna post a correction for this tab? Suggest correction