Oops, an error
Loading. Please wait.

What A Shame tab

version 2
version 2

Whole song

Interactive

53,692 views 123 this week
3 commentsread comments
1 2 3 4 5
x 25
add to favorites
×
Save as Personal and add changes to this tab that will be seen only by you. Learn more ›
×
You can save this tab as Personal to edit and correct it or add notes. All changes will be seen only by you. Learn more »
launch autoscroll
font size
0
reset
how to read this tab
guitar tuner
edit
Autoscroll
slow
fast
+/-
esc
set tempo
stop
Author
Difficulty
-----------------------------------------------------------------------------
                           WHAT A SHAME – Shinedown
-----------------------------------------------------------------------------
Tabbed by: Nate

Tuning: Drop-D (DADGBe)

Guitar 1: clean electric
Guitar 2: clean electric w/ chorus effect
Guitar 3: distortion

New song off of “The Sound of Madness.”  Please rate and enjoy.

I did my best to get the whole song.  The only part I question is the bridge, everything 
should be good.
I didn’t go and tab exact strum patterns for the chorus and bridge, but you should get 
general idea.


INTRO
  Gtr. 1
e|---------------------------------|---------------------------------|
B|---------------------------------|---------------------------------|
G|---------------------------------|---------------------------------|
D|-------6-----6---6p5---5-----5---|---------8-------------3-----3/6-|
A|-----3---------------------------|-------6-------------1-----------|
D|-3---------3---3-----3-----3---3-|-3/6---------6\1-1---------1-----|

e|---------------------------------|---------------------------------|
B|---------------------------------|---------------------------------|
G|---------------------------------|---------------------------------|
D|-------6-----6---6p5---5-----5---|---------8-------3~--------------|
A|-----3---------------------------|-------6---------1~--------------|
D|-3---------3---3-----3-----3---3-|-3/6---------6\1-1~--------------|


VERSE 1
  Gtr. 1                                               (play 4 times)
e|---------------------------------|---------------------------------|
B|---------------------------------|---------------------------------|
G|---------------------------------|---------------------------------|
D|-------6-----6---6p5---5-----5---|---------8-------------3-----3/6-|
A|-----3---------------------------|-------6-------------1-----------|
D|-3---------3---3-----3-----3---3-|-3/6---------6\1-1---------1-----|
  Gtr. 2                           |                                 |
e|---------------------------------|---------------------------------|
B|---------------------------------|---------------------------------|
G|---------------------------------|---------------------------------|
D|-----6/8~------------------------|---------------------------------|
A|---3-----------------------------|---------------------------------|
D|-3-------------------------------|-6~--------------1~--------------|


PRE-CHORUS
  Gtr. 1 and 2
e|---------------------------------|---------------------------------|
B|---------------------------------|---------------------------------|
G|-3~------------------------------|-6~--------------5-------8-------|
D|-3~------------------------------|-6~--------------5-------8-------|
A|-1~------------------------------|-4~--------------3-------6-------|
D|---------------------------------|---------------------------------|


CHORUS
  Gtr. 3                                               (play 3 times)
e|---------------------------------|---------------------------------|
B|---------------------------------|---------------------------------|
G|---------------------------------|---------------------------------|
D|-3~-------------6~---------------|-1~------------------------------|
A|-3~-------------6~---------------|-1~------------------------------|
D|-3~-------------6~---------------|-1~------------------------------|

e|---------------------------------|
B|---------------------------------|
G|-6-6-6-6-6-6-6-6-5-5-5-5-5-5-5-5-|
D|-6-6-6-6-6-6-6-6-5-5-5-5-5-5-5-5-|
A|-4-4-4-4-4-4-4-4-3-3-3-3-3-3-3-3-|
D|---------------------------------|


POST VERSE RUN (OR WHATEVER)
  Gtr. 1
e|---------------------------------|---------------------------------|
B|---------------------------------|---------------------------------|
G|---------------------------------|---------------------------------|
D|-------6-----6---6p5---5-----5---|---------8-------------3-----3/6-|
A|-----3---------------------------|-------6-------------1-----------|
D|-3---------3---3-----3-----3---3-|-3/6---------6\1-1---------1-----|
  Gtr. 3                           |                                 |
e|---------------------------------|---------------------------------|
B|---------------------------------|---------------------------------|
G|---------------------------------|---------------------------------|
D|-3~------------------------------|-6~----------8b9r8~------------1-|
A|-3~------------------------------|---------------------------------|
D|-3~------------------------------|---------------------------------|

e|---------------------------------|---------------------------------|
B|---------------------------------|---------------------------------|
G|---------------------------------|---------------------------------|
D|-------6-----6---6p5---5-----5---|---------8-------------3-----3/6-|
A|-----3---------------------------|-------6-------------1-----------|
D|-3---------3---3-----3-----3---3-|-3/6---------6\1-1---------1-----|
                                   |                                 |
e|---------------------------------|---------------------------------|
B|---------------------------------|---------------------------------|
G|---------------------------------|-----1---------------------------|
D|-3~------------------------------|-1h3---3~------3p1---1~----------|
A|-----------------------------1-3-|-------------------3-------3-1---|
D|---------------------------------|-------------------------------6-|


VERSE 2
  Gtr. 1
e|---------------------------------|---------------------------------|
B|---------------------------------|---------------------------------|
G|---------------------------------|---------------------------------|
D|-------6-----6---6p5---5-----5---|---------8-------------3-----3/6-|
A|-----3---------------------------|-------6-------------1-----------|
D|-3---------3---3-----3-----3---3-|-3/6---------6\1-1---------1-----|
  Gtr. 2                           |                                 |
e|---------------------------------|---------------------------------|
B|---------------------------------|---------------------------------|
G|---------------------------------|---------------------------------|
D|-----6/8~------------------------|---------------------------------|
A|---3-----------------------------|---------------------------------|
D|-3-------------------------------|-6~--------------1~--------------|
  Gtr. 3                           |                                 |
e|---------------------------------|---------------------------------|
B|---------------------------------|---------------------------------|
G|---------------------------------|---------------------------------|
D|-3-------------------------------|---------------------------------|
A|-3-------------------------------|---------------------------------|
D|-3-------------------------------|---------------------------------|

e|---------------------------------|---------------------------------|
B|---------------------------------|---------------------------------|
G|---------------------------------|---------------------------------|
D|-------6-----6---6p5---5-----5---|---------8-------------3-----3/6-|
A|-----3---------------------------|-------6-------------1-----------|
D|-3---------3---3-----3-----3---3-|-3/6---------6\1-1---------1-----|
                                   |                                 |
e|---------------------------------|---------------------------------|
B|---------------------------------|---------------------------------|
G|---------------------------------|---------------------------------|
D|-----6/8~------------------------|---------------------------------|
A|---3-----------------------------|---------------------------------|
D|-3-------------------------------|-6~--------------1~--------------|
                                   |                                 |
e|---------------------------------|---------------------------------|
B|---------------------------------|---------------------------------|
G|---------------------------------|---------------------------------|
D|---------------------------------|----------------------------xxxx-|
A|---------------------------------|----------------------------xxxx-|
D|---------------------------------|----------------------------xxxx-|

e|---------------------------------|---------------------------------|
B|---------------------------------|---------------------------------|
G|---------------------------------|---------------------------------|
D|-------6-----6---6p5---5-----5---|---------8-------------3-----3/6-|
A|-----3---------------------------|-------6-------------1-----------|
D|-3---------3---3-----3-----3---3-|-3/6---------6\1-1---------1-----|
                                   |                                 |
e|---------------------------------|---------------------------------|
B|---------------------------------|---------------------------------|
G|---------------------------------|---------------------------------|
D|-----6/8~------------------------|---------------------------------|
A|---3-----------------------------|---------------------------------|
D|-3-------------------------------|-6~--------------1~--------------|
                                   |                                 |
e|---------------------------------|---------------------------------|
B|---------------------------------|---------------------------------|
G|---------------------------------|---------------------------------|
D|-3--------------------------xxxx-|-6--------------------------xxxx-|
A|-3--------------------------xxxx-|-6--------------------------xxxx-|
D|-3--------------------------xxxx-|-6--------------------------xxxx-|

e|---------------------------------|---------------------------------|
B|---------------------------------|---------------------------------|
G|---------------------------------|---------------------------------|
D|-------6-----6---6p5---5-----5---|---------8-------------3-----3/6-|
A|-----3---------------------------|-------6-------------1-----------|
D|-3---------3---3-----3-----3---3-|-3/6---------6\1-1---------1-----|
                                   |                                 |
e|---------------------------------|---------------------------------|
B|---------------------------------|---------------------------------|
G|---------------------------------|---------------------------------|
D|-----6/8~------------------------|---------------------------------|
A|---3-----------------------------|---------------------------------|
D|-3-------------------------------|-6~--------------1~--------------|
                                   |                                 |
e|---------------------------------|---------------------------------|
B|---------------------------------|---------------------------------|
G|---------------------------------|---------------------------------|
D|-3--------------------------xxxx-|-6-------------------------------|
A|-3--------------------------xxxx-|-6-------------------------------|
D|-3--------------------------xxxx-|-6-------------------------------|


PRE-CHORUS
  Gtr. 1,2 and 3
e|---------------------------------|---------------------------------|
B|---------------------------------|---------------------------------|
G|-3~------------------------------|-6~--------------5-------8-------|
D|-3~------------------------------|-6~--------------5-------8-------|
A|-1~------------------------------|-4~--------------3-------6-------|
D|---------------------------------|---------------------------------|


CHORUS
  Gtr. 3                                               (play 3 times)
e|---------------------------------|---------------------------------|
B|---------------------------------|---------------------------------|
G|---------------------------------|---------------------------------|
D|-3~-------------6~---------------|-1~------------------------------|
A|-3~-------------6~---------------|-1~------------------------------|
D|-3~-------------6~---------------|-1~------------------------------|

e|---------------------------------|---------------------------------|
B|---------------------------------|---------------------------------|
G|-6-6-6-6-6-6-6-6-5-5-5-5-5-5-5-5-|---------------------------------|
D|-6-6-6-6-6-6-6-6-5-5-5-5-5-5-5-5-|-8-8-6-8-8-6-8-8-6-8-8-6-8-8-8-8-|
A|-4-4-4-4-4-4-4-4-3-3-3-3-3-3-3-3-|-8-8-6-8-8-6-8-8-6-8-8-6-8-8-8-8-|
D|---------------------------------|-8-8-6-8-8-6-8-8-6-8-8-6-8-8-8-8-|


BRIDGE
  Gtr. 2                                               (play 4 times)
e|---------------------------------|---------0~----------------------|
B|---------------------------------|---------3~----------------------|
G|-------2-------0-------0-------0-|---------2~----------------------|
D|-----0-------0-------2---2---0---|-0-------0~----------------------|
A|-0-------2-------3---------------|---------------------------------|
D|---------------------------------|---------------------------------|
  Gtr. 3                           |                                 |
e|---------------------------------|---------------------------------|
B|---------------------------------|---------------------------------|
G|-2-------4-------5-------9-------|-7-------7-------7---7---7---7---|
D|-2-------4-------5-------9-------|-7-------7-------7---7---7---7---|
A|-0-------2-------3-------7-------|-5-------5-------5---5---5---5---|
D|---------------------------------|---------------------------------|

e|-0---------------------0---0-0-0-|-0---------------------0---0-0-0-|
B|-1---------------------1---1-1-1-|-3---------------------3---3-3-3-|
G|-0---------------------0---0-0-0-|-2---------------------2---2-2-2-|
D|-2---------------------2---2-2-2-|-0---------------------0---0-0-0-|
A|-3---------------------3---3-3-3-|---------------------------------|
D|---------------------------------|---------------------------------|
                                   |                                 |
e|---------------------------------|---------------------------------|
B|---------------------------------|---------------------------------|
G|-5-------5-------5-------5-5-5-5-|-7-------7-------7-------7-7-7-7-|
D|-5-------5-------5-------5-5-5-5-|-7-------7-------7-------7-7-7-7-|
A|-3-------3-------3-------3-3-3-3-|-5-------5-------5-------5-5-5-5-|
D|---------------------------------|---------------------------------|

e|-0---------------------0---0-0-0-|
B|-1---------------------1---1-1-1-|
G|-0---------------------0---0-0-0-|
D|-2---------------------2---2-2-2-|
A|-3---------------------3---3-3-3-|
D|---------------------------------|
                                   |
e|---------------------------------|
B|---------------------------------|
G|-5-------5-------5-------5-5-5-5-|
D|-5-------5-------5-------5-5-5-5-|
A|-3-------3-------3-------3-3-3-3-|
D|---------------------------------|
  Gtr. 3
e|-----------------------------------------------------------------|
B|-----------------------------------------------------------------|
G|-7-7-7-7-8-8-8-8-10-10-10-10-12-12-12-12-14-14-14-14-16-16-16-16-|
D|-7-7-7-7-8-8-8-8-10-10-10-10-12-12-12-12-14-14-14-14-16-16-16-16-|
A|-5-5-5-5-6-6-6-6-8--8--8--8--10-10-10-10-12-12-12-12-14-14-14-14-|
D|-----------------------------------------------------------------|

e|-------------------------------------------------|
B|-------------------------------------------------|
G|-17-17-17-17-17-17-17-17-17-17-17-17-17-17-17-17-|
D|-17-17-17-17-17-17-17-17-17-17-17-17-17-17-17-17-|
A|-15-15-15-15-15-15-15-15-15-15-15-15-15-15-15-15-|
D|-------------------------------------------------|


CHORUS
  Gtr. 3                                               (play 5 times)
e|---------------------------------|---------------------------------|
B|---------------------------------|---------------------------------|
G|---------------------------------|---------------------------------|
D|-3~-------------6~---------------|-1~------------------------------|
A|-3~-------------6~---------------|-1~------------------------------|
D|-3~-------------6~---------------|-1~------------------------------|

END
  Gtr. 1
e|---------------------------------|---------------------------------|
B|---------------------------------|---------------------------------|
G|---------------------------------|---------------------------------|
D|-------6-----6---6p5---5-----5---|---------8-------------3-----3/6-|
A|-----3---------------------------|-------6-------------1-----------|
D|-3---------3---3-----3-----3---3-|-3/6---------6\1-1---------1-----|
  Gtr. 3                           |                                 |
e|---------------------------------|---------------------------------|
B|---------------------------------|---------------------------------|
G|---------------------------------|---------------------------------|
D|-3~------------------------------|---------------------------------|
A|-3~------------------------------|---------------------------------|
D|-3~------------------------------|---------------------------------|

e|---------------------------------|---------------------------------|
B|---------------------------------|---------------------------------|
G|---------------------------------|---------------------------------|
D|-------6-----6---6p5---5-----5---|---------8-------3~--------------|
A|-----3---------------------------|-------6---------1~--------------|
D|-3---------3---3-----3-----3---3-|-3/6---------6\1-1~--------------|
                                   |                                 |
e|---------------------------------|---------------------------------|
B|---------------------------------|---------------------------------|
G|---------------------------------|---------------------------------|
D|---------------------------------|---------------------------------|
A|---------------------------------|---------------------------------|
D|---------------------------------|---------------------------------|

            
            
Suggest correction
Creating personal tab
Creating personal tab
You can edit any tab online and save it as your Personal.

You can edit, replace or remove any tab part or add personal notes – all changes will be seen only by you.

Personal tabs can be accessed anytime from any device, even offline.
Learn more »
comments
print report bad tab
3 comments total.
0 reply
Ashraf99999 91 Aug 09, 2008 08:16 PM

i like the intro a lot....really nice....good tab man, keep it coming!:)

0 reply
chickrawker 216 Mar 24, 2009 02:43 PM

such an awsome song.. its been constantly in my head my stereo for the past week or so.. sick...

thanks for the tab!!

0 reply
frettinfreak420 10 Sep 29, 2009 02:19 PM

for verses and stuff, iy isn't

e---------
B---------
G---------
D----6---6
A---3-----
D-3----3--and so on, you put the 3 on the A, not the E/D string

guest
You may want to rate the tab now too:
select rating
Wanna post a correction for this tab? Suggest correction