Oops, an error
Loading. Please wait.

Yer Majesty tab

version 3
version 3

Whole song

Interactive

3,023 views 3 this week
1 commentread comment
1 2 3 4 5
1 last vote to show rating
add to favorites
×
Save as Personal and add changes to this tab that will be seen only by you. Learn more ›
×
You can save this tab as Personal to edit and correct it or add notes. All changes will be seen only by you. Learn more »
launch autoscroll
font size
0
reset
how to read this tab
guitar tuner
edit
Autoscroll
slow
fast
+/-
esc
set tempo
stop
=====================================================================================
Title: *Yer Majesty*
Artist: Shinedown
Album: Us & Them
=====================================================================================
Written by Brent Smith, Brad Stewart, Jasin Todd, Barry Kerch and Tony Battaglia
Produced by 'Driven By Records' and 'Big Ant Music, BMI (ASCAP)'
=====================================================================================
Label: Atlantic Records
Year: 2005
=====================================================================================
Track: -5-
=====================================================================================
Transcripted by Asa Gaston of Oklahoma
=====================================================================================
Tuning: Drop-D; low to high: D - A - D - G - B - E
=====================================================================================

-------------------------------------------------------------------------------------
Guitar 1 -{ D - A - D - G - B - E }- Lead - Jasin Todd
-------------------------------------------------------------------------------------
Guitar 2 -{ D - A - D - G - B - E }- Rythem - Percussion
-------------------------------------------------------------------------------------
Guitar 3 -{ D - A - D - G - B - E }- Solo - Jasin Todd (shyeah, big time)
-------------------------------------------------------------------------------------

=====================================================================================
INTRO
=====================================================================================
0:00-

 Gtr. 1 (dist.)
E|-------------------------|------------------------------------------|
B|-------------------------|------------------------------------------|
G|--------------5----------|--------------5---------------------------|
D|--------------5----------|--------------5---------------------------|
A|--------------3----------|--------------3-----5---3-0---------------|
D|---0---3p0-3-------------|---0---3p0-3----------------5-3-0-3b(1/4)-|

=====================================================================================
VERSE 1
=====================================================================================
0:05-

E|------------------------------------|------------------------------------|
B|------------------------------------|------------------------------------|
G|--------------5---------------------|------------------------------------|
D|--------------5---x--x--x---x-x-x-x-|--------------5---------------------|
A|--------------3---x--x--x---x-x-x-x-|--------------3-----5---3-----------|
D|---0---3p0-3------------------------|---0---3p0-3---------------5---0--3-|
  1.   Come closer inside...

E|--------------------------------|------------------------------------------|
B|--------------------------------|------------------------------------------|
G|--------------------------------|------------------------------------------|
D|--------------5---x--x-----5--5-|-------------5----------------------------|
A|--------------3---x--x-----5--5-|-------------3-----/5---3-0---------------|
D|---0---3p0-3------------0--5--5-|---0---3p0-3----------------5-3-0-3b(1/4)-|
                     P.M. *

E|-------------------------|--------------------------------------|
B|-------------------------|--------------------------------------|
G|--------------5----------|--------------------------------------|
D|--------------5----------|--------------5-----------------------|
A|---0----------3----------|---0----------3-----/5---3------------|
D|---0---3p0-3-------------|---0---3p0-3-----------------5---0--3-|


E|-------------------------------------|-------------------------------------------|
B|-------------------------------------|-------------------------------------------|
G|-------------------2.6--2.6----------|-------------------------------------------|
D|--------------5-----x----x------5--5-|--------------5----------------------------|
A|--------------3-----x----x------5--5-|--------------3-----/5---3-0---------------|
D|---0---3p0-3-----------------0--5--5-|---0---3p0-3-----------------5-3-0-3b(1/4)-|
                   Harm.-----}

=====================================================================================
PRE-CHORUS
=====================================================================================
0:27-

E|----------------------------------------------------------------------|
B|----------------------------------------------------------------------|
G|----------------------------------------------------------------------|
D|---------------0----------------------------------0-------------------|
A|---0-----3-----0-----6-----3----------0-----3-----0-----6-----0-----3-|
D|---0-----3-----------6-----3----------0-----3-----------6-----0-----3-|
 |Gtr. 2 (dist.)
E|----------------------------------------------------------------------|
B|----------------------------------------------------------------------|
G|----------------------------------------------------------------------|
D|---6br(1/2)-(6)-6br(1/2)-(6)-6br(1/2)-(6)-6br(1/2)-(6)-6br(1/2)---(6)-|
A|----------------------------------------------------------------------|
D|----------------------------------------------------------------------|
                                      You know I'm...

E|----------------------------------------------------------------------|
B|----------------------------------------------------------------------|
G|----------------------------------------------------------------------|
D|---------------0----------------------------------0-------------------|
A|---0-----3-----0-----6-----3----------0-----3-----0-----6-----0-----3-|
D|---0-----3-----------6-----3----------0-----3-----------6-----0-----3-|
 |
E|----------------------------------------------------------------------|
B|----------------------------------------------------------------------|
G|----------------------------------------------------------------------|
D|---6br(1/2)-(6)-6br(1/2)-(6)-6br(1/2)-(6)-----------------------------|
A|--------------------------------------------0--3--5--5--5--5--5-------|
D|----------------------------------------------------------------------|


E|-----------------------------------|---------------------------------|
B|-----------------------------------|---------------------------------|
G|-----------------------5-----------|--5-7-7-5-7-7-5-7-7-5-7-5-7-7-7--|
D|---7-6-6-7-6-6-7-6-6-7---6-7---0-0-|---------------------------------|
A|-----------------------------------|---------------------------------|
D|-----------------------------------|---------------------------------|
 |
E|-----------------------------------|---------------------------------|
B|-----------------------------------|---------------------------------|
G|-----------------------------------|---------------------------------|
D|----------6---------------0--------|--------6---------------0--------|
A|---0---3--6--6-3-----0-3--0--6-0-3-|-0---3--6--6-3-----0-3--0--6-0-3-|
D|---0---3-----6-3-----0-3-----6-0-3-|-0---3-----6-3-----0-3-----6-0-3-|

=====================================================================================
CHORUS
=====================================================================================
0:39-

E|------------------------------------|-------------------------|
B|------------------------------------|-------------------------|
G|------------------------------------|-------------------------|
D|-------3h5--3p0-3-----3-3-3-3-3-3-3-|-----3h5--3p0------------|
A|---3h5------------------------------|-3h5----------5----------|
D|------------------------------------|-------------------------|
 |
E|------------------------------------|-------------------------|
B|------------------------------------|-------------------------|
G|------------------------------------|-------------------------|
D|------------------------------------|-------------------------|
A|---7------5--5--8-----8-8-8-8-8-8-8-|-7-7-7---5----0----------|
D|---7------5--5--8-----8-8-8-8-8-8-8-|-7-7-7---5----0----------|
    Wanted to be...

E|------------------------------------|-------------------------|
B|------------------------------------|-------------------------|
G|------------------------------------|-------------------------|
D|-------3h5--3p0-3-----3-3-3-3-3-3-3-|-----3h5--3p0------------|
A|---3h5------------------------------|-3h5----------5----------|
D|------------------------------------|-------------------------|
 |
E|------------------------------------|-------------------------|
B|------------------------------------|-------------------------|
G|------------------------------------|-------------------------|
D|------------------------------------|-------------------------|
A|---7------5--5--8-----8-8-8-8-8-8-8-|-7-7-7---5----0-------0--|
D|---7------5--5--8-----8-8-8-8-8-8-8-|-7-7-7---5----0-------0--|


E|------------------------------------|-------------------------|
B|------------------------------------|-------------------------|
G|------------------------------------|-------------------------|
D|-------3h5--3p0-3-----3-3-3-3-3-3-3-|-----3h5--3p0------------|
A|---3h5------------------------------|-3h5----------5----------|
D|------------------------------------|-------------------------|
 |
E|------------------------------------|-------------------------|
B|------------------------------------|-------------------------|
G|------------------------------------|-------------------------|
D|------------------------------------|-------------------------|
A|---7------5--5--8-----8-8-8-8-8-8-8-|-7-7-7---5----0----------|
D|---7------5--5--8-----8-8-8-8-8-8-8-|-7-7-7---5----0----------|

                                                                 strong vibrato~~~~~~~~~~}
E|--------------------------------------|-------------------------------------------------|
B|--------------------------------------|-------------------------------------------------|
G|--------------------------------------|-------------------------------------------------|
D|-------3h5--3p0-3-5-----5-5-5-5-5-5-5-|-5/7--7--7--7--7--7--7--7/10--10--10--10--10--10-|
A|---3h5--------------------------------|-------------------------------------------------|
D|--------------------------------------|-------------------------------------------------|
 |
E|--------------------------------------|-------------------------------------------------|
B|--------------------------------------|-------------------------------------------------|
G|--------------------------------------|-------------------------------------------------|
D|--------------------------------------|-------------------------------------------------|
A|---7-7-7---5---5-8------8-8-8-8-8-8-8-|-10-10-10-10-10-10-10-10-11-11-11-11-11-11-11-11-|
D|---7-7-7---5---5-8------8-8-8-8-8-8-8-|-10-10-10-10-10-10-10-10-11-11-11-11-11-11-11-11-|

=====================================================================================
INTERLUDE
=====================================================================================
1:02-

E|---------------------|
B|---------------------|
G|---------------------|
D|---0---0--------5--5-|
A|---0---0--------5--5-|
D|---0---0--------5--5-|
 |
E|---------------------|
B|---------------------|
G|---------------------|
D|---0---0-------------|
A|---------------------|
D|---------------------|

=====================================================================================
VERSE 2
=====================================================================================
1:05-

E|------------------------------------|------------------------------------|
B|------------------------------------|------------------------------------|
G|------------------------------------|------------------------------------|
D|--------------5------x--x-----x---x-|--------------5---------------------|
A|---0----------3------x--x-----x---x-|--------------3----/5---3-----------|
D|---0---3p0-3------------------------|---0---3p0-3---------------5---0--3-|
  2.   Let's take a...

E|--------------------------------|------------------------------------|
B|--------------------------------|------------------------------------|
G|--------------------------------|------------------------------------|
D|--------------5---x--x-----5--5-|-------------5----------------------|
A|--------------3---x--x-----5--5-|-------------3-----/5---3-0---------|
D|---0---3p0-3------------0--5--5-|---0---3p0-3----------------5-3-0-3-|
                     P.M. *

E|---------------------------------|--------------------------------------|
B|---------------------------------|--------------------------------------|
G|---------------------------------|--------------------------------------|
D|--------------5--x-x-x-x-x-x-x-x-|--------------------------------------|
A|--------------3--x-x-x-x-x-x-x-x-|--------------3-----/5---3------------|
D|---0---3p0-3---------------------|---0---3p0-3-----------------5---0--3-|


E|-------------------------------------|-------------------------------------------|
B|-------------------------------------|-------------------------------------------|
G|-------------------------------------|-------------------------------------------|
D|--------------5-----------------5--5-|--------------5----------------------------|
A|--------------3-----------------5--5-|--------------3-----/5---3-0---------------|
D|---0---3p0-3-----------------0--5--5-|---0---3p0-3-----------------5-3-0-3-------|
                        P.M. - *

=====================================================================================
PRE-CHORUS
=====================================================================================
1:26-

E|----------------------------------------------------------------------|
B|----------------------------------------------------------------------|
G|----------------------------------------------------------------------|
D|---------------0----------------------------------0-------------------|
A|---0-----3-----0-----6-----3----------0-----3-----0-----6-----0-----3-|
D|---0-----3-----------6-----3----------0-----3-----------6-----0-----3-|
 |Gtr. 2 (dist.)
E|----------------------------------------------------------------------|
B|----------------------------------------------------------------------|
G|----------------------------------------------------------------------|
D|---6br(1/2)-(6)-6br(1/2)-(6)-6br(1/2)-(6)-6br(1/2)-(6)-6br(1/2)---(6)-|
A|----------------------------------------------------------------------|
D|----------------------------------------------------------------------|
                                      You know I'm...

E|----------------------------------------------------------------------|
B|----------------------------------------------------------------------|
G|----------------------------------------------------------------------|
D|---------------0----------------------------------0-------------------|
A|---0-----3-----0-----6-----3----------0-----3-----0-----6-----0-----3-|
D|---0-----3-----------6-----3----------0-----3-----------6-----0-----3-|
 |
E|----------------------------------------------------------------------|
B|----------------------------------------------------------------------|
G|----------------------------------------------------------------------|
D|---6br(1/2)-(6)-6br(1/2)-(6)-6br(1/2)-(6)-----------------------------|
A|--------------------------------------------0--3--5--5--5--5--5-------|
D|----------------------------------------------------------------------|


E|-----------------------------------|---------------------------------|
B|-----------------------------------|---------------------------------|
G|-----------------------5-----------|--5-7-7-5-7-7-5-7-7-5-7-5-7-7-7--|
D|---7-6-6-7-6-6-7-6-6-7---6-7---0-0-|---------------------------------|
A|-----------------------------------|---------------------------------|
D|-----------------------------------|---------------------------------|
 |
E|-----------------------------------|---------------------------------|
B|-----------------------------------|---------------------------------|
G|-----------------------------------|---------------------------------|
D|----------6---------------0--------|--------6---------------0--------|
A|---0---3--6--6-3-----0-3--0--6-0-3-|-0---3--6--6-3-----0-3--0--6-0-3-|
D|---0---3-----6-3-----0-3-----6-0-3-|-0---3-----6-3-----0-3-----6-0-3-|

=====================================================================================
CHORUS
=====================================================================================
1:37-

E|------------------------------------|-------------------------|
B|------------------------------------|-------------------------|
G|------------------------------------|-------------------------|
D|-------3h5--3p0-3-----3-3-3-3-3-3-3-|-----3h5--3p0------------|
A|---3h5------------------------------|-3h5----------5----------|
D|------------------------------------|-------------------------|
 |
E|------------------------------------|-------------------------|
B|------------------------------------|-------------------------|
G|------------------------------------|-------------------------|
D|------------------------------------|-------------------------|
A|---7------5--5--8-----8-8-8-8-8-8-8-|-7-7-7---5----0----------|
D|---7------5--5--8-----8-8-8-8-8-8-8-|-7-7-7---5----0----------|
    Wanted to be...

E|------------------------------------|-------------------------|
B|------------------------------------|-------------------------|
G|------------------------------------|-------------------------|
D|-------3h5--3p0-3-----3-3-3-3-3-3-3-|-----3h5--3p0------------|
A|---3h5------------------------------|-3h5----------5----------|
D|------------------------------------|-------------------------|
 |
E|------------------------------------|-------------------------|
B|------------------------------------|-------------------------|
G|------------------------------------|-------------------------|
D|------------------------------------|-------------------------|
A|---7------5--5--8-----8-8-8-8-8-8-8-|-7-7-7---5----0-------0--|
D|---7------5--5--8-----8-8-8-8-8-8-8-|-7-7-7---5----0-------0--|


E|------------------------------------|-------------------------|
B|------------------------------------|-------------------------|
G|------------------------------------|-------------------------|
D|-------3h5--3p0-3-----3-3-3-3-3-3-3-|-----3h5--3p0------------|
A|---3h5------------------------------|-3h5----------5----------|
D|------------------------------------|-------------------------|
 |
E|------------------------------------|-------------------------|
B|------------------------------------|-------------------------|
G|------------------------------------|-------------------------|
D|------------------------------------|-------------------------|
A|---7------5--5--8-----8-8-8-8-8-8-8-|-7-7-7---5----0----------|
D|---7------5--5--8-----8-8-8-8-8-8-8-|-7-7-7---5----0----------|

                                                                 strong vibrato~~~~~~~~~~}
E|--------------------------------------|-------------------------------------------------|
B|--------------------------------------|-------------------------------------------------|
G|--------------------------------------|-------------------------------------------------|
D|-------3h5--3p0-3-5-----5-5-5-5-5-5-5-|-5/7--7--7--7--7--7--7--7/10--10--10--10--10--10-|
A|---3h5--------------------------------|-------------------------------------------------|
D|--------------------------------------|-------------------------------------------------|
 |
E|--------------------------------------|-------------------------------------------------|
B|--------------------------------------|-------------------------------------------------|
G|--------------------------------------|-------------------------------------------------|
D|--------------------------------------|-------------------------------------------------|
A|---7-7-7---5---5-8------8-8-8-8-8-8-8-|-10-10-10-10-10-10-10-10-11-11-11-11-11-11-11-11-|
D|---7-7-7---5---5-8------8-8-8-8-8-8-8-|-10-10-10-10-10-10-10-10-11-11-11-11-11-11-11-11-|

=====================================================================================
Guitar Solo
=====================================================================================
1:59-

  Gtr. 3 (dist.)    *heavy reverb throughout
E|---------------------------------------------------------|
B|---/10-10-10-10-10-10-10-10-10-10-10-10-10b(1/2)r-(10)p8-|
G|---------------------------------------------------------|
D|---------------------------------------------------------|
A|---------------------------------------------------------|
D|---------------------------------------------------------|
 |
E|---------------------------------------------------------|
B|---------------------------------------------------------|
G|---------------------------------------------------------|
D|--------------------------------------------------3------|
A|---------------------5-----5-------------------5---------|
D|---0---------0---0------------0-----0---0---0------------|


E|----------------------------------------------|
B|---/10-10-10-10-10-10-10-10--8-8-8-8-8-8-8-8--|
G|----------------------------------------------|
D|----------------------------------------------|
A|----------------------------------------------|
D|----------------------------------------------|
 |
E|----------------------------------------------|
B|----------------------------------------------|
G|----------------------------------------------|
D|----------------------------------------------|
A|----------------5-----5----------------5--3---|
D|---0-----0---0----------0----0--0--0--------3-|


E|---------------------------------------------------------|
B|---/10-10-10-10-10-10-10-10-10-10-10-10-10b(1/2)r-(10)p8-|
G|---------------------------------------------------------|
D|---------------------------------------------------------|
A|---------------------------------------------------------|
D|---------------------------------------------------------|
 |
E|---------------------------------------------------------|
B|---------------------------------------------------------|
G|---------------------------------------------------------|
D|--------------------------------------------------3------|
A|---------------------5-----5-------------------5---------|
D|---0---------0---0------------0-----0---0---0------------|


E|----------------------------------------------|
B|---/10-10-10-10-10-10-10-10--8-8-8-8--10\-----|
G|----------------------------------------------|
D|----------------------------------------------|
A|----------------------------------------------|
D|----------------------------------------------|
 |
E|----------------------------------------------|
B|----------------------------------------------|
G|----------------------------------------------|
D|----------------------------------------------|
A|----------------5-----5----------------5--3---|
D|---0-----0---0----------0----0--0--0--------3-|

  *heavy reverb off
E|---10-------10-------10--------------------------------------|
B|---13b(1)---13b(1)---13b(1)--r-(13)p10-----------------------|
G|---------------------------------------12b(1)r-(12)-10-------|
D|-------------------------------------------------------12-10-|
A|-------------------------------------------------------------|
D|-------------------------------------------------------------|
 |
E|-------------------------------------------------------------|
B|-------------------------------------------------------------|
G|-------------------------------------------------------------|
D|--------------------------------------------------------3----|
A|------------------/5-----5-------------------------5---------|
D|---0-------0--0-------------0---------0----0---0-------------|


E|------------------------------------------------------|
B|---10-------10-------10-------------------------------|
G|---12b(1)---12b(1)---12b(1)-----12b(1)r-(12)p10-------|
D|------------------------------------------------12\---|
A|------------------------------------------------------|
D|------------------------------------------------------|
 |
E|------------------------------------------------------|
B|------------------------------------------------------|
G|------------------------------------------------------|
D|----------------------------------------------------3-|
A|-----------------------5----5-----------------------3-|
D|---0--------0-----0------------0-------0---0---0----3-|


E|--------------------------------------------------|
B|-------13----13-13----13---------13--------13-----|
G|---/14----14-14-14-14-14------14-14---14------14--|
D|--------------------------------------------------|
A|--------------------------------------------------|
D|--------------------------------------------------|
 |
E|--------------------------------------------------|
B|--------------------------------------------------|
G|---3--3--3--3--3-----3--3-----3--3--3--3--3--3--3-|
D|---3--3--3--3--3-----3--3-----3--3--3--3--3--3--3-|
A|---1--1--1--1--1-----1--1-----1--1--1--1--1--1--1-|
D|--------------------------------------------------|


E|--------------------------------------13----15b(1)r-(15)-13----|
B|-------13--------15-15----13-------15----15-----------------15-|
G|---/14-14-----14-------14-14-----------------------------------|
D|---------------------------------------------------------------|
A|---------------------------------------------------------------|
D|---------------------------------------------------------------|
 |
E|---------------------------------------------------------------|
B|---------------------------------------------------------------|
G|---5---5---5---5---5---5---5---5---5/6---6---6---6---6---6---6-|
D|---5---5---5---5---5---5---5---5---5/6---6---6---6---6---6---6-|
A|---3---3---3---3---3---3---3---3---3/4---4---4---4---4---4---4-|
D|---------------------------------------------------------------|

=====================================================================================
CHORUS
=====================================================================================
2:21-

E|------------------------------------|------------------------------------------|
B|------------------------------------|------------------------------------------|
G|------------------------------------|------------------------------------------|
D|-------3h5--3p0-3-----3-3-3-3-3-3-3-|-----3h5--3p0-----------------------------|
A|---3h5------------------------------|-3h5----------5---------------------------|
D|------------------------------------|------------------------------------------|
 |
E|------------------------------------|------------------------------------------|
B|------------------------------------|------------------------------------------|
G|------------------------------------|------------------------------------------|
D|------------------------------------|------------------------------------------|
A|---7------5--5--8-----8-8-8-8-8-8-8-|-7-7-7---5----0---------------------------|
D|---7------5--5--8-----8-8-8-8-8-8-8-|-7-7-7---5----0---------------------------|
 |
E|---15b(1)--r-(15)b(1)---r-(15)b(1)--|------------------------------------------|
B|------------------------------------|---------------13-------------------------|
G|------------------------------------|---------------12b(1)r-(12)-10------------|
D|------------------------------------|-------------------------------12\10------|
A|------------------------------------|-------------------------------------10\8-|
D|------------------------------------|------------------------------------------|
    Wanted to be...

E|------------------------------------|-------------------------------------------------------|
B|------------------------------------|-------------------------------------------------------|
G|------------------------------------|-------------------------------------------------------|
D|-------3h5--3p0-3-----3-3-3-3-3-3-3-|-------3h5----3p0--------------------------------------|
A|---3h5------------------------------|-3h5--------------5------------------------------------|
D|------------------------------------|-------------------------------------------------------|
 |
E|------------------------------------|-------------------------------------------------------|
B|------------------------------------|-------------------------------------------------------|
G|------------------------------------|-------------------------------------------------------|
D|------------------------------------|-------------------------------------------------------|
A|---7------5--5--8-----8-8-8-8-8-8-8-|-7---7---7-----5------0---------0----------------------|
D|---7------5--5--8-----8-8-8-8-8-8-8-|-7---7---7-----5------0---------0----------------------|
 |
E|------------------------------------|-------------------------------------------------------|
B|--------------10-10----10-10--------|-10----10----10--------------------10--------10-13b(1)-|
G|--------------10-10----10-10--------|-10----10----10----------10-12b(1)----12b(1)-----------|
D|--------------------12--------------|----12----12----12-12~~~-------------------------------|
A|---12~~~~~~~~-----------------------|-------------------------------------------------------|
D|------------------------------------|-------------------------------------------------------|


E|--------------------------------------------------------|--------------------------------------------------|
B|--------------------------------------------------------|--------------------------------------------------|
G|--------------------------------------------------------|--------------------------------------------------|
D|--------3h5-----3p0-3-------3---3---3---3---3---3---3---|-------3h5----3p0---------------------------------|
A|-3h5----------------------------------------------------|-3h5--------------5-------------------------------|
D|--------------------------------------------------------|--------------------------------------------------|
 |
E|--------------------------------------------------------|--------------------------------------------------|
B|--------------------------------------------------------|--------------------------------------------------|
G|--------------------------------------------------------|--------------------------------------------------|
D|--------------------------------------------------------|--------------------------------------------------|
A|-7--------5----5----8-------8---8---8---8---8---8---8---|-7---7---7-----5------0---------------------------|
D|-7--------5----5----8-------8---8---8---8---8---8---8---|-7---7---7-----5------0---------------------------|
 |
E|--------------------------------------------------------|--------------------------------------------------|
B|-13(1)--13b(1)r-(13)-10-13~~~-10--------10--------------|---------------------------------10---------------|
G|---------------------------------12b(1)----12b(1)-12-10-|12p10----10----------------------10p12-12b(1)r(12)|
D|--------------------------------------------------------|------12-------------------10-12------------------|
A|--------------------------------------------------------|-----------/10-8-10--10/12------------------------|
D|--------------------------------------------------------|--------------------------------------------------|

                                                                 strong vibrato~~~~~~~~~~}
E|--------------------------------------|-------------------------------------------------|
B|--------------------------------------|-------------------------------------------------|
G|--------------------------------------|-------------------------------------------------|
D|-------3h5--3p0-3-5-----5-5-5-5-5-5-5-|-5/7--7--7--7--7--7--7--7/10--10--10--10--10--10-|
A|---3h5--------------------------------|-------------------------------------------------|
D|--------------------------------------|-------------------------------------------------|
 |
E|------------------------------------------------|-------------------------------------------------|
B|------------------------------------------------|-------------------------------------------------|
G|------------------------------------------------|-------------------------------------------------|
D|------------------------------------------------|-------------------------------------------------|
A|---7-7-7-----5-----5-8--------8-8-8-8-8-8-8-----|-10-10-10-10-10-10-10-10-11-11-11-11-11-11-11-11-|
D|---7-7-7-----5-----5-8--------8-8-8-8-8-8-8-----|-10-10-10-10-10-10-10-10-11-11-11-11-11-11-11-11-|
 |
E|---------------------------------------13-13----|-15b(1)-----15b(1)-----15b(1)-----15b(1)---15p13-|
B|------10-12-------------10-13-13-15-15-------15-|-15b(1/2)---15b(1/2)---15b(1/2)---15b(1/2)-------|
G|------10-12------10-----------------------------|-------------------------------------------------|
D|---12---------12----12--------------------------|-------------------------------------------------|
A|------------------------------------------------|-------------------------------------------------|
D|------------------------------------------------|-------------------------------------------------|

=====================================================================================
OUTRO
=====================================================================================
2:43-

E|-----------------------------------|---------------------------------|
B|-----------------------------------|---------------------------------|
G|-----------------------------------|---------------------------------|
D|----------6---------------0--------|--------6---------------0--------|
A|---0---3--6--6-3-----0-3--0--6-0-3-|-0---3--6--6-3-----0-3--0--6-0-3-|
D|---0---3-----6-3-----0-3-----6-0-3-|-0---3-----6-3-----0-3-----6-0-3-|
 |
E|-----------------------------------|---------------------------------|
B|-----------------------------------|---------------------------------|
G|-----------------------------------|---------------------------------|
D|----------6---------------0--------|--------6---------------0--------|
A|---0---3--6--6-3-----0-3--0--6-0-3-|-0---3--6--6-3-----0-3--0--6-0-3-|
D|---0---3-----6-3-----0-3-----6-0-3-|-0---3-----6-3-----0-3-----6-0-3-|
 |
E|-----------------------------------|---------------------------------|
B|---15~~~~~~~~~~~~~~~~~~~~~~~~~~~~~-|---------------------------------|
G|-----------------------------------|---------------------------------|
D|-----------------------------------|---------------------------------|
A|-----------------------------------|---------------------------------|
D|-----------------------------------|---------------------------------|


E|-----------------------------------|---------------------------------|
B|-----------------------------------|---------------------------------|
G|-----------------------------------|---------------------------------|
D|----------6---------------0--------|--------6---------------0--------|
A|---0---3--6--6-3-----0-3--0--6-0-3-|-0---3--6--6-3-----0-3--0--6-0-3-|
D|---0---3-----6-3-----0-3-----6-0-3-|-0---3-----6-3-----0-3-----6-0-3-|
 |
E|-----------------------------------|---------------------------------|
B|-----------------------------------|---------------------------------|
G|-----------------------------------|---------------------------------|
D|----------6---------------0--------|--------6---------------0--------|
A|---0---3--6--6-3-----0-3--0--6-0-3-|-0---3--6--6-3-----0-3--0--6-0-3-|
D|---0---3-----6-3-----0-3-----6-0-3-|-0---3-----6-3-----0-3-----6-0-3-|



Guitar Legend*


 D*------------Distortion
 C*------------Clean
 h ------------Hammer-On
 p ------------Pull-Off
 b ------------Bend:
               + (1/4)-One-fourth bend + (1/2)-One-half bend + 
               + (1)-Full bend + (2)-Double full bend, etc.  +
 pb -----------Pre-Bend
 r ------------Bend Release ( if there is no number after r, release immediately )
 / ------------Slide Into
 \ ------------Slide Out Of
 s ------------Legato Slide
 S ------------Shift Slide
 Harm.---------Natural Harmonic
 A.H.----------Artificial Harmonic
 T.H. ---------Tapped Harmonic
 ~ ------------Vibrato
 tr -----------Trill
 T ------------Tap
 TR -----------Trem. Picking
 PM -----------Palm Muting
 \n/ ----------Tremolo Bar Dip; n - Amount to Dip
 \n -----------Tremolo Bar Down
 n/ -----------Tremolo Bar Up
 /n\ ----------Tremolo Bar Inverted Dip
 = ------------Hold Bend; Also Acts As Connecting Device For Hammer-Ons/Pull-Offs
 < ------------Volume Swell Louder
 > ------------Volume Swell Softer
 x ------------Muted Slash
 o ------------Single Note Slash


**************************************************************************************

NOTE: Once again, another hit from Shinedown from thier hit cd; Us & Them. They
      couldn't wright a bad song if they're lives depended on it. That last
      solo through that last chorus is tough to hear. But once you learn it,
      it's funny how you then hear the guitar in it that you never heard.
                                            Well... ...ENJOY!!!

                                                 -Asa (myspace.com/asagaston)
                                                      (asahendrix@hotmail.com)

            
            
Suggest correction
Creating personal tab
Creating personal tab
You can edit any tab online and save it as your Personal.

You can edit, replace or remove any tab part or add personal notes – all changes will be seen only by you.

Personal tabs can be accessed anytime from any device, even offline.
Learn more »
Give kudos to tab author, rate the tab!
1 2 3 4 5
comments
print report bad tab
1 comment total.
0 reply
phasesevenfold 213 Aug 09, 2007 11:08 AM

hey nice tab. great work

guest
You may want to rate the tab now too:
select rating
Wanna post a correction for this tab? Suggest correction