Oops, an error
Loading. Please wait.

Guren intro tab

3,511 views 3 this week
4 commentsread comments
1 2 3 4 5
1 last vote to show rating
add to favorites
×
Save as Personal and add changes to this tab that will be seen only by you. Learn more ›
×
You can save this tab as Personal to edit and correct it or add notes. All changes will be seen only by you. Learn more »
launch autoscroll
font size
0
reset
how to read this tab
guitar tuner
edit
Autoscroll
slow
fast
+/-
esc
set tempo
stop
Author
Artist: Shinkou Shuukyou Gakudan NoGoD or just NoGoD because the rest is long and
hard to pronounce.

Official Site: http://www.artpop.org/nogod/

Song: Guren

Tabbed by: MarowLan

e|-------------------------------------|
B|-------------------------------------|
G|-------------------------------------|
D|-12/-5--0-3-0-5-0-3-0-5-0-3-0-6-6-6--|    X2
A|-12/-5--0-3-0-5-0-3-0-5-0-3-0-6-6-6--|
D|-12/-5--0-3-0-5-0-3-0-5-0-3-0-6-6-6--|

when sliding from 12 to 5 do a pick slide at the same time and also when you get to it strum
the fifth fret don't just slide to it.

e|----------------------------------------------------------|
B|----------------------------------------------------------|
G|----------------------------------------------------------|
D|-5--0-3-0-5-0-3-0-5-0-3-0-5-4-3--1-0-1-3-1-3-5-3-5-7-5-7--|
A|-5--0-3-0-5-0-3-0-5-0-3-0-5-4-3--1-0-1-3-1-3-5-3-5-7-5-7--|
D|-5--0-3-0-5-0-3-0-5-0-3-0-5-4-3--1-0-1-3-1-3-5-3-5-7-5-7--|
                                      PM .  .  .

e|------------------------------------------|
B|------------------------------------------|
G|-14--X-12-X-14-X-12-X-14-X-12-X-15-15-15--|
D|-12--X-10-X-12-X-10-X-12-X-10-X-13-13-13--|  X2
A|------------------------------------------|
D|------------------------------------------|

e|-------------------------------------------------------------------------------|
B|-----------------------------------------------------------------------11------|
G|-14--X-12-X-14-X-12-X-14-X-12-11-10-----------------------10---10-12-10---12/--|
D|-12--X-10-X-12-X-10-X-12-X-10--------13-11--10-11-13-11-13--13-----------------|
A|-------------------------------------------------------------------------------|
D|-------------------------------------------------------------------------------|

e|------------------------------|
B|------------------------------|
G|------------------------------|
D|-5--0-3-0-5-0-3-0-5-0-3--5b*--|
A|-5--0-3-0-5-0-3-0-5-0-3-------|
D|-5--0-3-0-5-0-3-0-5-0-3-------|

to be perfectly honest i have no idea what that little squeel is at the end. I just took
shot in the dark.

PM = palm mute
/ = slide up
* = pick squeel
X =mute
b =bend

ok now everything looks good in the tab preview lets hope it stays that way.
P.S. Don't hold your breath for the rest.

            
            
Suggest correction
Creating personal tab
Creating personal tab
You can edit any tab online and save it as your Personal.

You can edit, replace or remove any tab part or add personal notes – all changes will be seen only by you.

Personal tabs can be accessed anytime from any device, even offline.
Learn more »
Give kudos to tab author, rate the tab!
1 2 3 4 5
comments
print report bad tab
4 comments total. Showing first comments.
0 reply
MarowLan 20 Dec 08, 2008 09:20 AM

This tab looked way more clean in the tab preview. When sliding from the 12th fret to the 5th fret strum the 5th fret (I guess I left out the word strum on the tab). Also in the part where you palm mute, the part that you are supposed to palm mute is the 5 5 5 part. Sorry about the mess ups like i said the tab looked way more neat on the preview.

0 reply
MarowLan 20 Aug 08, 2009 10:02 AM

changed the tab. now the part thats palm muted is the 543 part.

0 reply
MarowLan 20 Aug 17, 2009 08:03 PM

oh holy crap this is the first time i have ever viewed my tab using an actual computer before. there is a certin part that is completely ****ed up, but it sounds right if you can figure out how to play it. the notes are all ther they're just all scrambled up. i'm so sorry..... oh who am i kidding no one looks at this tab and evenless (i don't know how that works) view the comments.

guest
You may want to rate the tab now too:
select rating
Wanna post a correction for this tab? Suggest correction