Oops, an error
Loading. Please wait.

Ghost Town bass

1,444 views 1 this week
1 commentread comment
1 2 3 4 5
2 more votes to show rating
add to favorites
×
Save as Personal and add changes to this tab that will be seen only by you. Learn more ›
×
You can save this tab as Personal to edit and correct it or add notes. All changes will be seen only by you. Learn more »
launch autoscroll
font size
0
reset
guitar tuner
edit
Autoscroll
slow
fast
+/-
esc
set tempo
stop
Author
Difficulty
 very fun song to play enjoy!

 ______________________________________________________________________
|                                                                      |
|   ~ = let ring                                                       |
|   \ = slide down                                                     |
|   / = slide up                                                       |
|   h = hammer on                                                      |
|   p = pull off                                                       |
|   . = palm mute                                                      |
|(x1) = how many times you hit the note (no change in rhythm)          |
|  x1 = how many times you hit the set                                 |
|  1> = listen to song and hit as long as needed (may change in rhythm)|
|                                                                      |
|______________________________________________________________________| 

intro
 g|------------------------------------------------------|
 d|------------------------------------------------------|
 a|-------------------------------------5h7-7-77-777-444-|
 e|-7h9-4-44-444-4444-7h9-4-44-444-4444------------------|

 verse

 chorus
 g|------------------------------------------------------|
 d|------------------------------------------------------|(x3)
 a|-------------------------------------5h7-7-77-777-444-|
 e|-7h9-4-44-444-4444-7h9-4-44-444-4444------------------|

 g|-------|
 d|-------|
 a|-------|
 e|-7h9-4~|

 verse

 chorus
 g|------------------------------------------------------|
 d|------------------------------------------------------|(x4)
 a|-------------------------------------5h7-7-77-777-444-|
 e|-7h9-4-44-444-4444-7h9-4-44-444-4444------------------|

 interlude : part where u here bass clear
 g|-------------------------------------------------------------------------|
 d|-------------------------------------------------------------------------|
 a|-19\11/19\---------------------------------------------------------------|
 e|-----------7h9-4-44-4-4-7h9-4-44-4-4-7h9-2-22-2-2-7h9-4~/16\7h9-4-44-4-4-|

 ----------------------------------------|
 ----------------------------------------|
 ----------------------------------------|
 -7h9-4-44-4-4-7h9-2-22-2-2-7h9-4-44-4-4-|

 chorus
 g|------------------------------------------------------|
 d|------------------------------------------------------|(x3)
 a|-------------------------------------5h7-7-77-777-444-|
 e|-7h9-4-44-444-4444-7h9-4-44-444-4444------------------|

 g|--------------------------------------------|
 d|--------------------------------------------|
 a|-------------------------------------5h7-7~-|
 e|-7h9-4-44-444-4444-7h9-4-44-444-4444--------|

            
            
Suggest correction
Creating personal tab
Creating personal tab
You can edit any tab online and save it as your Personal.

You can edit, replace or remove any tab part or add personal notes – all changes will be seen only by you.

Personal tabs can be accessed anytime from any device, even offline.
Learn more »
Give kudos to tab author, rate the tab!
1 2 3 4 5
comments
print report bad tab
1 comment total.
+1 reply
hernandeznathan 10 Oct 23, 2009 04:14 PM

Thank you for making tabs for Ghost town! It looks just the way Jeremy plays it.

guest
You may want to rate the tab now too:
select rating
Wanna post a correction for this tab? Suggest correction