Oops, an error
Loading. Please wait.

Rainy Monday bass

version 1
version 1

Whole song

Interactive

1,582 views 3 this week
no commentswrite comment
1 2 3 4 5
2 more votes to show rating
add to favorites
×
Save as Personal and add changes to this tab that will be seen only by you. Learn more ›
×
You can save this tab as Personal to edit and correct it or add notes. All changes will be seen only by you. Learn more »
launch autoscroll
font size
0
reset
guitar tuner
edit
Autoscroll
slow
fast
+/-
esc
set tempo
stop
Author
Difficulty
yo, this is a very easy as well as great song. 

i got this by listening to the cd and watching it live, 
but some of the music videos play it all one note higher

so if you go by those videos u would have to hit 4s instead 3s and 6s instead of 5s and so on.

    
    
    
(intro) after the guitar plays once    
|------------------------------------|  
|------------------------------------|(x1)
|-3-(x16)--------------------3-(x16)-|
|----------3-(x16)--5-(x16)----------|
  

(pre chorus)
|--------------------------------|
|--------------------------------|(x1)
|-5-(x8)----------3-(x8)---------|
|---------1-(x8)----------3-(X8)-|


(chorus) which is the same as the pre chorus
|--------------------------------|
|--------------------------------|(x4)
|-5-(x8)----------3-(x8)---------|
|---------1-(x8)----------3-(X8)-|


(verse) which is the same as the intro
|------------------------------------|
|------------------------------------|(x2)
|-3-(x16)--------------------3-(x16)-|
|----------3-(x16)--5-(x16)----------|

[play pre chorus again]

[play chorus again]

(slow part) i wouldn't consider this a bridge
|--------------------------------|
|--------------------------------|(x4)
|-5~--------------3~-------------|
|---------1~--------------3~-----|

(last chorus) same as the others only longer
|--------------------------------|
|--------------------------------|(x8)
|-5-(x8)----------3-(x8)---------|
|---------1-(x8)----------3-(X8)-|
 _____________________________________________________________________
|                                                                     |
|   ~ = let ring                                                      |
|   \ = slide down                                                    |
|   / = slide up                                                      |
|   h = hammer on                                                     |
|   p = pull off                                                      |
|   . = palm mute                                                     |
|(x1) = how many times you hit the note (no change in rythem)         |
|  x1 = how many times you hit the set                                |
|  1> = liten to song and hit as long as needed (may change in rythem)|
|                                                                     |
|_____________________________________________________________________|

            
            
Suggest correction
Creating personal tab
Creating personal tab
You can edit any tab online and save it as your Personal.

You can edit, replace or remove any tab part or add personal notes – all changes will be seen only by you.

Personal tabs can be accessed anytime from any device, even offline.
Learn more »
Give kudos to tab author, rate the tab!
1 2 3 4 5
comments
print report bad tab
guest
You may want to rate the tab now too:
select rating
Wanna post a correction for this tab? Suggest correction