Oops, an error
Loading. Please wait.

Ricochet tab

version 2
version 2

Whole song

2,709 views 1 this week
2 commentsread comments
1 2 3 4 5
x 4
add to favorites
×
Save as Personal and add changes to this tab that will be seen only by you. Learn more ›
×
You can save this tab as Personal to edit and correct it or add notes. All changes will be seen only by you. Learn more »
launch autoscroll
font size
0
reset
how to read this tab
guitar tuner
edit
Autoscroll
slow
fast
+/-
esc
set tempo
stop
Author
---------------------------------------------------------------------------
                             Ricochet! - Shiny Toy Guns
---------------------------------------------------------------------------
Tabbed by: Lash364
Email: Daftpunker94@aol.com

Tuning: DADGBe
  
  Chorus 1
e|-----------------------------------------------------------------|    
B|-----------------------------------------------------------------|
G|-----------------------------------------------------------------|    
D|--15-10-12-12-10---15-10-12-12-----15-10-12-12-10---15-10-12-0---| 
A|--15-10-12-12-10---15-10-12-12--x5-15-10-12-12-10---15-10-12-0---|
D|--15-10-12-12-10---15-10-12-12-----15-10-12-12-10---15-10-12-0---|
                ^^x12         ^^x12  

  Mid-verse (After "Breakin' through the night sky)
e|--------------------------------------|
B|--------------------------------------|
G|--------------------------------------|
D|--------------------------------------|
A|--------------------------------------| x2
D|--15-10-12-12-10/---15-10-12-12/------|

  Chorus 2 (La la la la la la la laow!) aka END
e|-------------------------------------------------------------------|
B|-------------------------------------------------------------------|
G|-------------------------------------------------------------------|
D|--15-10-12-12-10---15-10-12-12-------15-10-12-12-10---15-10-12-0---|
A|--15-10-12-12-10---15-10-12-12--x12--15-10-12-12-10---15-10-12-0---|
D|--15-10-12-12-10---15-10-12-12-------15-10-12-12-10---15-10-12-0---|
                ^^x12         ^^x12
 

If you want to play with the synths then use these chords.
Hope you like it and have fun with it!

            
            
Suggest correction
Creating personal tab
Creating personal tab
You can edit any tab online and save it as your Personal.

You can edit, replace or remove any tab part or add personal notes – all changes will be seen only by you.

Personal tabs can be accessed anytime from any device, even offline.
Learn more »
comments
print report bad tab
2 comments total.
+1 reply
china_dweller 275 Dec 14, 2008 05:31 PM

perfect

0 reply
hernandeznathan 10 Mar 24, 2009 08:34 AM

Very Nice!

guest
You may want to rate the tab now too:
select rating
Wanna post a correction for this tab? Suggest correction