Oops, an error
Loading. Please wait.

Nakaniwa No Shoujotachi tab

490 views 6 this week
1 commentread comment
1 2 3 4 5
3 more votes to show rating
add to favorites
×
Save as Personal and add changes to this tab that will be seen only by you. Learn more ›
×
You can save this tab as Personal to edit and correct it or add notes. All changes will be seen only by you. Learn more »
launch autoscroll
font size
0
reset
how to read this tab
guitar tuner
edit
Autoscroll
slow
fast
+/-
esc
set tempo
stop
Author
Difficulty
[Intro]
E|------------------------------------7----9--7--9-|
B|----7s9---9-----8---8--8---7---7-----------------|
G|--------9---9-----9---9------9---9-----9---------| x3
D|-------------------------------------------------|
A|-------------------------------------------------|
E|-------------------------------------------------|

[Intro Ending]
E|-------------------------------------------------|
B|----7s9---9-----8---8--8---7~--------------------|
G|--------9---9-----9---9----9~--------------------|
D|-------------------------------------------------|
A|-------------------------------------------------|
E|-------------------------------------------------|

E|----------------------|   -----------------------|
B|----9~-9-9-9-9--9~----|   -----------------------|
G|----9~-9-9-9-9--9~----|   -----------------------|
D|----9~-9-9-9-9--9~----|x3 ----------9~-----------|
A|----7~-7-7-7-7--7~----|   ---------11~-----------|
E|----------------------|   -------s--9~-----------|
      v  v ^ v ^  v

[Verse 1]
Bass Part:
E|-------------------------------------------------|
B|-------------------------------------------------|
G|-------------------------------------------------|
D|-------------------------------------------------|
A|---------------2--------------------4------------|
E|----2---2-0-2---------4---4-2-4------------------|

[Verse 1 Ending]
E|-------------------------------------------------|
B|-------------------------------------------------|
G|---------------------1-1-1-1-1-1-1-1-------------|
D|---4-4-4-4--3-3-3-3--2-2-2-2-2-2-2-2-------------|
A|---4-4-4-4--3-3-3-3--2-2-2-2-2-2-2-2-------------|
E|---2-2-2-2--1-1-1-1--0-0-0-0-0-0-0-0-------------|

[Pre Chorus]
E|----------------------------------------------------|
B|----------------------------------------------------|
G|--------------------------------------1-----1-------|
D|-7---7-7-7-6---6---6-6-6-4--4---4-4-4-2---x-2-4-6---|
A|-7---7-7-7-6---6---6-6-6-4--4---4-4-4-2---x-2-4-6---|
E|-5---5-5-5-4---4---4-4-4-2--2---2-2-2-0---x-0-2-4---|

E|----------------------------------------------------|
B|----------------------------------------------------|
G|---------------------------------------1-1-1--------|
D|-7---7-7-7-6---6---6-s-4---4-4-4-3-3-3-2-2-2------9-|
A|-7---7-7-7-6---6---6-s-4---4-4-4-3-3-3-2-2-2-----11-|
E|-5---5-5-5-4---4---4-s-2---2-2-2-1-1-1-0-0-0---s--9-|

[Chorus]

E|-2-2-2-2-2-2-2-2-4-4-4-4-4-4-4-4-------2-2-2-2-4-4-4-4-5-5-5-5-------------------------|\
B|-2-2-2-2-4-4-4-4-4-4-4-4-6-6-6-6-------2-2-2-2-4-4-4-4-5-5-5-5-7-7-7-7-----------------| \
G|-2-2-2-2-4-4-4-4-4-4-4-4-4-4-4-4-------2-2-2-2-4-4-4-4-6-6-6-6-8-8-8-8-----------------|
D|-4-4-4-4-4-4-4-4-6-6-6-6-6-6-6-6-------4-4-4-4-6-6-6-6-7-7-7-7-7-7-7-7-----------------|   x2
A|-4-4-4-4-2-2-2-2-6-6-6-6-4-4-4-4-------4-4-4-4-6-6-6-6-7-7-7-7-9-9-9-9-----------------| /
E|-2-2-2-2---------4-4-4-4---------------2-2-2-2-4-4-4-4-5-5-5-5-7-7-7-7-----------------|/

E|-------------------------------------------------|
B|-------------------------------------------------|
G|--------1-1-1-1----------------------------------|
D|--4~-3~-2-2-2-2-----9----------------------------|
A|--4~-3~-2-2-2-2----11----------------------------|
E|--2~-1~-0-0-0-0--s--9----------------------------|

[Pre Verse]
E|------------------------------------7----9--7--9-|
B|----7s9---9-----8---8--8---7---7-----------------|
G|--------9---9-----9---9------9---9-----9---------| x2
D|-------------------------------------------------|
A|-------------------------------------------------|
E|-------------------------------------------------|

E|---------------------------------------------------------------------|
B|-12s-14----14----13-13-13-----13-----12----12----14-14-14-----14-----|
G|--------13----13-13-13-13--13----13-----13----13-13-13-13--13----13--|
D|---------------------------------------------------------------------|
A|---------------------------------------------------------------------|
E|---------------------------------------------------------------------|

E|-------------------------------------------------|
B|-14----14----13----13----13-----------------14---|
G|----13----13----13----13--------------------13---|
D|-------------------------------------------------|
A|-------------------------------------------------|
E|-------------------------------------------------|

[Verse 2]
E|-------------------------------------------------|
B|-------------------------------------------------|
G|---------4-4-4-4---------6-6-6-6-----------------|
D|-4-4-4-4-4-4-4-4-6-6-6-6-6-6-6-6-----------------|
A|-4-4-4-4-2-2-2-2-6-6-6-6-4-4-4-4-----------------|
E|-2-2-2-2---------4-4-4-4-------------------------|

E|-------------------------------------------------|
B|-------------------------------------------------|
G|---------------------1-1-1-1-1-1-1-1-------------|
D|---4-4-4-4--3-3-3-3--2-2-2-2-2-2-2-2-------------|
A|---4-4-4-4--3-3-3-3--2-2-2-2-2-2-2-2-------------|
E|---2-2-2-2--1-1-1-1--0-0-0-0-0-0-0-0-------------|

[Pre Chorus]
E|----------------------------------------------------|
B|----------------------------------------------------|
G|--------------------------------------1-----1-------|
D|-7---7-7-7-6---6---6-6-6-4--4---4-4-4-2---x-2-4-6---|
A|-7---7-7-7-6---6---6-6-6-4--4---4-4-4-2---x-2-4-6---|
E|-5---5-5-5-4---4---4-4-4-2--2---2-2-2-0---x-0-2-4---|

E|----------------------------------------------------|
B|----------------------------------------------------|
G|---------------------------------------1-1-1--------|
D|-7---7-7-7-6---6---6-s-4---4-4-4-3-3-3-2-2-2------9-|
A|-7---7-7-7-6---6---6-s-4---4-4-4-3-3-3-2-2-2-----11-|
E|-5---5-5-5-4---4---4-s-2---2-2-2-1-1-1-0-0-0---7s-9-|

[Chorus 2]


E|-2-2-2-2-2-2-2-2-4-4-4-4-4-4-4-4-------2-2-2-2-4-4-4-4-5-5-5-5-------------------------|\
B|-2-2-2-2-4-4-4-4-4-4-4-4-6-6-6-6-------2-2-2-2-4-4-4-4-5-5-5-5-7-7-7-7-----------------| \
G|-2-2-2-2-4-4-4-4-4-4-4-4-4-4-4-4-------2-2-2-2-4-4-4-4-6-6-6-6-8-8-8-8-----------------|
D|-4-4-4-4-4-4-4-4-6-6-6-6-6-6-6-6-------4-4-4-4-6-6-6-6-7-7-7-7-7-7-7-7-----------------|   x2
A|-4-4-4-4-2-2-2-2-6-6-6-6-4-4-4-4-------4-4-4-4-6-6-6-6-7-7-7-7-9-9-9-9-----------------| /
E|-2-2-2-2---------4-4-4-4---------------2-2-2-2-4-4-4-4-5-5-5-5-7-7-7-7-----------------|/

E|-------------------------------------------------|
B|-------------------------------------------------|
G|--------1-1-1-1----------------------------------|
D|--4~-3~-2-2-2-2-----9----------------------------|
A|--4~-3~-2-2-2-2----11----------------------------|
E|--2~-1~-0-0-0-0--s--9----------------------------|

[Solo]
E|---------------------------------------------------------------|
B|---------------------------------------------------------------|
G|----9-11s-13----9-11s-13-11s-9----9-11s-13----9-11s-13-11s-9---|
D|-11----------11----------------11----------11------------------|
A|---------------------------------------------------------------|
E|---------------------------------------------------------------|

E|---------------------------------------------------------------|
B|-----------------------------------------------------------12--|
G|--9--9--9--9--9--8--8--8-5-5-5---9--9--9--9--9-11--9-13--9-13--|
D|-11-11-11-11-11-10-10-10-6-6-6--11-11-11-11-11-13-11-14-11-----|
A|---------------------------------------------------------------|
E|---------------------------------------------------------------|

E|--------------------------------------------------------------------------------------------------|
B|--------------------------------------------------------------------------------------------------|
G|----9-11s-13----9-11s-13-11s-9----9-11s-13----9-11s-13-11s-9----9-11s-13----9-11s-13-11s-9--------|
D|-11----------11----------------11----------11----------------12----------12-----------------------|
A|--------------------------------------------------------------------------------------------------|
E|--------------------------------------------------------------------------------------------------|

[Bridge]
E|--------------------------------------------------------------------------------------------------|
B|--------------------------------------------------------------------------------------------------|
G|-----------------4---4-4-4-4-4-4-----------------6---6-6-6-6-6-6----------------------------------|
D|-4---4-4-4-4-4-4-4---4-4-4-4-4-4-6---6-6-6-6-6-6-6---6-6-6-6-6-6---4-4-x-6-x-6-x-7-x-7-x-9-x-9----|
A|-4---4-4-4-4-4-4-2---2-2-2-2-2-2-6---6-6-6-6-6-6-4---4-4-4-4-4-4---4-4-x-6-x-6-x-7-x-7-x-9-x-9----|
E|-2---2-2-2-2-2-2-----------------4---4-4-4-4-4-4-------------------2-2-x-4-x-4-x-5-x-5-x-7-x-7----|
       * * * * * *     * * * * * *     * * * * * *     * * * * * *

E|--------------------------------------------------------------------------------------------------|
B|--------------------------------------------------------------------------------------------------|
G|-7-----6-----5-----4-----3-----2-----------------------4------------------------------------------|
D|-7(x8)-6(x8)-5(x4)-4(x4)-3(x8)-2(x8)-6-----5-----4-----4(x4)--------------------------------------|
A|-5-----4-----3-----2-----1-----0-----6(x4)-5(x4)-4(x4)-2------------------------------------------|
E|-------------------------------------4-----3-----2------------------------------------------------|

[Chorus 3]
E|-2-2-2-2-2-2-2-2-4-4-4-4-4-4-4-4-------2-2-2-2-4-4-4-4-5-------------------------------|
B|-2-2-2-2-4-4-4-4-4-4-4-4-6-6-6-6-------2-2-2-2-4-4-4-4-5-------7-7-7-7-----------------|
G|-2-2-2-2-4-4-4-4-4-4-4-4-4-4-4-4-------2-2-2-2-4-4-4-4-6-------8-8-8-8-----------------|
D|-4-4-4-4-4-4-4-4-6-6-6-6-6-6-6-6-------4-4-4-4-6-6-6-6-7-------7-7-7-7-----------------|
A|-4-4-4-4-2-2-2-2-6-6-6-6-4-4-4-4-------4-4-4-4-6-6-6-6-7-------9-9-9-9-----------------|
E|-2-2-2-2---------4-4-4-4---------------2-2-2-2-4-4-4-4-5-------7-7-7-7-----------------|

E|-2-2-2-2-2-2-2-2-4-4-4-4-4-4-4-4-------2-2-2-2-4-4-4-4-5-5-5-5-------------------------|
B|-2-2-2-2-4-4-4-4-4-4-4-4-6-6-6-6-------2-2-2-2-4-4-4-4-5-5-5-5-7-7-7-7-----------------|
G|-2-2-2-2-4-4-4-4-4-4-4-4-4-4-4-4-------2-2-2-2-4-4-4-4-6-6-6-6-8-8-8-8-----------------|
D|-4-4-4-4-4-4-4-4-6-6-6-6-6-6-6-6-------4-4-4-4-6-6-6-6-7-7-7-7-7-7-7-7-----------------|
A|-4-4-4-4-2-2-2-2-6-6-6-6-4-4-4-4-------4-4-4-4-6-6-6-6-7-7-7-7-9-9-9-9-----------------|
E|-2-2-2-2---------4-4-4-4---------------2-2-2-2-4-4-4-4-5-5-5-5-7-7-7-7-----------------|

E|----------------------------------------|
B|----------------------------------------|
G|---------4-4-4-4------------------------|
D|-4-4-4-4-4-4-4-4-6-6-6-6--9--9--9--9----|  
A|-4-4-4-4-2-2-2-2-6-6-6-6-11-11-11-11----|
E|-2-2-2-2---------4-4-4-4--9--9--9--9----|

E|-------------------------------------------------|
B|-------------------------------------------------|
G|--------1-1-1-1----------------------------------|
D|--4~-3~-2-2-2-2-----9----------------------------|
A|--4~-3~-2-2-2-2----11----------------------------|
E|--2~-1~-0-0-0-0--s--9----------------------------|

[Outro]
E|------------------------------------7----9--7--9-|
B|----7s9---9-----8---8--8---7---7-----------------|
G|--------9---9-----9---9------9---9-----9---------| x3
D|-------------------------------------------------|
A|-------------------------------------------------|
E|-------------------------------------------------|

E|---------------------------9---|
B|----7s9---9-----8---8--8---7---|
G|--------9---9-----9---9----9---|
D|-------------------------------|
A|-------------------------------|
E|-------------------------------|



************************************

| ~  Vibrato
| x  Dead note 
| s  Slide

************************************

            
            
Suggest correction
Creating personal tab
Creating personal tab
You can edit any tab online and save it as your Personal.

You can edit, replace or remove any tab part or add personal notes – all changes will be seen only by you.

Personal tabs can be accessed anytime from any device, even offline.
Learn more »
Give kudos to tab author, rate the tab!
1 2 3 4 5
comments
print report bad tab
1 comment total.
0 reply
peumorales00 10 Aug 17, 2017 06:07 PM

I LOVE YOU

guest
You may want to rate the tab now too:
select rating
Wanna post a correction for this tab? Suggest correction