Oops, an error
Loading. Please wait.

Allen Wrench tab

10 views 1 this week
no commentswrite comment
1 2 3 4 5
3 more votes to show rating
add to favorites
×
Save as Personal and add changes to this tab that will be seen only by you. Learn more ›
×
You can save this tab as Personal to edit and correct it or add notes. All changes will be seen only by you. Learn more »
launch autoscroll
font size
0
reset
how to read this tab
guitar tuner
edit
Autoscroll
slow
fast
+/-
esc
set tempo
stop
About this tab version
As the author of this song, I know it to be correct. Was this info helpful? Yes No
ALLEN WRENCH
From the 2006 release "You're Not Gonna Want To Hear This"


[Intro]

 D               F#              G                 A

   D               F#              G                 A
e|---------------------------------------------------------------------|
B|---------------------------------------------------------------------|
G|-11-11-11-11-9-9-11-11-11-11-9-9-12-12-12-12-12-12-14-14-14-14-12-12-|
D|---------------------------------------------------------------------|
A|-9--9--9--9--7-7-9--9--9--9--7-7-10-10-10-10-10-10-12-12-12-12-10-10-|
E|---------------------------------------------------------------------|


[Verse 1]

   D           B           G           A
e|-------------------------3-3-3-3-3-3-5-5-5-5-5-5-|
B|-7-7-7-7-7-7-4-4-4-4-4-4-4-4-4-4-4-4-6-6-6-6-6-6-|
G|-7-7-7-7-7-7-4-4-4-4-4-4-4-4-4-4-4-4-6-6-6-6-6-6-|  x4
D|-7-7-7-7-7-7-4-4-4-4-4-4-------------------------|
A|-------------------------------------------------|
E|-------------------------------------------------|

D                       B                G         A
When you tell me not to drink I might as well come clean - I need it.
D                   B                G               A
And when I say that you should go to hell - well, goddamn, I mean it.
D                B                G                 A
Don't throw your judgements at me, you shit-talking scenester wannabe.
D              B               G                 A
Just keep your distance, stay away, and we'll be okay.


[BASS RIFF AT END OF V1]

G|-2-0-------------------------|
D|-----4-2---------------------|
A|-----------------------------|
E|-----------------------------|


[Verse 2]

D                   B             G                  A
When you're in your 30's it's not cool when all your friends are in
D            B               G                A
high school.                    And since you care so much
 D              B           G              A
about what everyone else does, how about I tell you what I
D              B           G             A
think of you?                   I'm not alone.


[Chorus 1]

D           B                        G
Mark, Mark, Mark, mark these words I say to you.
D      B            C           A
Nobody likes you anyway.
D             A             G         A
When you're exposed for the fraud you are - 
      D              A             G        A       G        A
Tough shit! You were asking for it from the start.


[Over the "A" at the end of the chorus]

e|----------------------------------------------------|
B|----------------------------------------------------|
G|-14-14-14-16-16-16-18-18-18-19-19-19-19-19-19-------|
D|----------------------------------------------------|
A|-12-12-12-14-14-14-16-16-16-17-17-17-17-17-17-------|
E|----------------------------------------------------|


[Verse 3]

D                 B               G           A
So you think that you know how to rock? Well, I'm not counting
D                   B            G               A
all the hours spent sitting in a chair while our fists were pounding.
D               B              G               A
Binge-drinking, drums beating, fans cheering - that's what I mean.
D                B           G           A
What the fuck do you know anyway?


[Chorus 2]

D           B                        G
Mark, Mark, Mark, mark these words I say to you.
D      B            C           A
Nobody likes you anyway.
D             A             G         A
When you're exposed for the fraud you are - 
      D              A             G        A       G        A
Tough shit! You were asking for it from the start.


[Solo]

   D         B       G                       D         B       C         A
e|-------------------------------------------------------------------------------|
B|-7-7-7-5-7-7-5-3-5-3~----------------------7-7-7-5-7-7-5-3-5-3-3-3-5-3-2-2-3-2-|
G|----------------------4~-4-4-4-2-2-2-2-4-2-------------------------------------|
D|-------------------------------------------------------------------------------|
A|-------------------------------------------------------------------------------|
E|-------------------------------------------------------------------------------|

   D     A     G   A   D   A     G                          A            D
e|-------------------------------------------------------------------------------|
B|-7-7-7-5-5-5-3-3-5-5-7-7-7-5-7-8-7-5-7-8-8-8p7h8-8-7-8-10-12-10-12-14~-15~~~~~-|
G|-------------------------------------------------------------------------------|
D|-------------------------------------------------------------------------------|
A|-------------------------------------------------------------------------------|
E|-------------------------------------------------------------------------------|


[Bridge]

 D       B       G       A
e|---------------------3-------5-----|
B|-----9-------3-----3---3---5---5---|
G|---9---9---4---4-4-------6---------| x4
D|-9-------4-------------------------|
A|-----------------------------------|
E|-----------------------------------|

D       B      G          A
Stop analyzing what we're writing -
D            B           G          A
It didn't concern you anyway.
D             B    G               A
And don't get so upset when we use words like "fuck" and
D                   B            G          A
"shit", you elitist cock-sucking prick.


[Chorus 3] (x2)

D           B                        G
Mark, Mark, Mark, mark these words I say to you.
D      B            C           A
Nobody likes you anyway.
D             A             G         A
When you're exposed for the fraud you are - 
      D              A             G        A       G        A
Tough shit! You were asking for it from the start.


[Riff playing behind last end chorus]

   D           B           G
e|----------------------------------------------------|
B|-15-15-15-14-12-12-12-------------------------------|
G|----------------------14-12-12-12p11h12-12-11-12-14-|
D|----------------------------------------------------|
A|----------------------------------------------------|
E|----------------------------------------------------|

   D           B           C           A
e|----------------------------------------------------|
B|-15-15-15-14-12-12-12----13-13-13-12-10-10-10h12p10-|
G|----------------------14----------------------------|
D|----------------------------------------------------|
A|----------------------------------------------------|
E|----------------------------------------------------|

   D     A     G     A     D     A     G     A
e|----------------------------------------------------|
B|----------------------------------------------------|
G|----15----------------------15----------------------|
D|-12-------14----12----10-12-------14----12----10----|
A|-------12----10----12----------12----10----12-------|
E|----------------------------------------------------|

   G                       A
e|-15----------------------17-------------------------|
B|----------------------------------------------------|
G|-12----------------------14-------------------------|
D|----------------------------------------------------|
A|----------------------------------------------------|
E|----------------------------------------------------|

   A   G   F#  E   D
e|-13--15--14--12--10---------------------------------|
B|----------------------------------------------------|
G|-10--12--11--9---7----------------------------------|
D|----------------------------------------------------|
A|-12--10--9---7---5----------------------------------|
E|----------------------------------------------------|


************************************

| h  Hammer-on
| p  Pull-off
| ~  Vibrato

************************************

            
            
Suggest correction
Creating personal tab
Creating personal tab
You can edit any tab online and save it as your Personal.

You can edit, replace or remove any tab part or add personal notes – all changes will be seen only by you.

Personal tabs can be accessed anytime from any device, even offline.
Learn more »
Give kudos to tab author, rate the tab!
1 2 3 4 5
comments
print report bad tab
guest
You may want to rate the tab now too:
select rating
Wanna post a correction for this tab? Suggest correction