Oops, an error
Loading. Please wait.

I Cant Say Goodbye tab

31 views 1 this week
no commentswrite comment
1 2 3 4 5
3 more votes to show rating
add to favorites
×
Save as Personal and add changes to this tab that will be seen only by you. Learn more ›
×
You can save this tab as Personal to edit and correct it or add notes. All changes will be seen only by you. Learn more »
launch autoscroll
font size
0
reset
how to read this tab
guitar tuner
edit
Autoscroll
slow
fast
+/-
esc
set tempo
stop
About this tab version
As the author of this song, I know it to be correct. Was this info helpful? Yes No
I CAN'T SAY GOODBYE
From the 2006 release "You're Not Gonna Want To Hear This"

[Verse 1]
 D          A#          G          A                    A
e|-------------------------------------------------------------------|
B|-------------------------------------------------------------------|
G|-7-----------------------------------------------------------------|
D|-7----------8-----------5----------7----7-7----7-7----7-7----------|
A|-5----------8-----------5----------7----7-7----7-7----7-7----------|
E|------------6-----------3----------5----6-5----6-5----6-5----------|

 D          A#          G          A                    A  G  F  E
e|-------------------------------------------------------------------|
B|-------------------------------------------------------------------|
G|-7-----------------------------------------------------------------|
D|-7----------8-----------5----------7----7-7----7-7----7-7--5--3--2-|
A|-5----------8-----------5----------7----7-7----7-7----7-7--5--3--2-|
E|------------6-----------3----------5----6-5----6-5----6-5--3--1--0-|
             D                            A#
I've already told you. I spoke with great clarity.
                  G                             A    A# A  A# A  A# A
Don't doubt my sincerity. Don't think I'll come back to you.
                  D                           A#
We said that we'd never part. You told me you loved me.
                   G                             A    A# A  A# A  A# A  G  F  E
Don't doubt that I wanted to be the guy that you gave your soul to.



[Pre-Chorus]
 D       A#       C       D       A#       C
e|---------------------------------------------------------|
B|---------------------------------------------------------|
G|-5----------------5-------5----------------5--7--9--11---|
D|-5-------8--------5-------5-------8----------------------|
A|-7-------8--------3-------7-------8--------3--5--7--9----|
E|---------6------------------------6----------------------|



[Chorus]
F#           A#             C
I wrote this goddamned song about you - 
F#      A#        C
My opportunity to say we're through.
   D       A#     C       F
So here it is. So hear my words.
  A#                 G             F       E
I won't! - you meant everything to me.



[Verse 2]
          D                           A#
I already miss you. This seems like a tragedy.
              G                     A    A# A  A# A  A# A
I'm losing my sanity. I'll never forget about you.
               D                             A#
I still think about you, though not quite as frequently.
              G                        A    A# A  A# A  A# A  G  F  E
I'm moving on slowly. I'll keep moving on and on and on...



[Chorus]
F#           A#             C
I wrote this goddamned song about you - 
F#      A#        C
My opportunity to say we're through.
   D       A#     C       F
So here it is. So hear my words.
  A#                 G             F       E
I won't! - you meant everything to me.



[Solo]
 D                 A#                  G                A
e|-------5---------------------6-----------------------3~---5---------------5-|
B|---------6---------------------6---------------------3~-----5---5-----------|
G|-----------7----7~-------7-------7---7----------4~----------------6---6-----|
D|----7~-------7~--------8---8-------8--------5------5----------------5---5---|
A|-5~------------------8--------------------5---5---------------7-------------|
E|-------------------6-------------------3~---------------5-----------------5-|

 D                    A#                      G
e|----------------------------------------------------------------------------|
B|----------------------------------------------------------------------------|
G|-19~~~-22-21-19-21-19-15~~~-15-17-15-14-15-14-12~~~-14~~~-15~~~-------------|
D|----------------------------------------------------------------------------|
A|-17~~~-20-19-17-19-17-13~~~-13-15-13-12-13-12-10~~~-12~~~-13~~~-------------|
E|----------------------------------------------------------------------------|

 A                          A  G  F  E
e|----------------------------------------------------------------------------|
B|----------------------------------------------------------------------------|
G|-14----15-14----15-14----15-14-12-10-9--------------------------------------|
D|----------------------------------------------------------------------------|
A|-12----13-12----13-12----13-12-10-8--7--------------------------------------|
E|----------------------------------------------------------------------------|




[Chorus]
F#           A#             C
I wrote this goddamned song about you - 
F#      A#        C
My opportunity to say we're through.
   D       A#     C       F
So here it is. So hear my words.
  A#                 G             F       E
I won't! - you meant everything to me.



[Outro]
    A#                  C             F
You know you still mean everything to me.

            
            
Suggest correction
Creating personal tab
Creating personal tab
You can edit any tab online and save it as your Personal.

You can edit, replace or remove any tab part or add personal notes – all changes will be seen only by you.

Personal tabs can be accessed anytime from any device, even offline.
Learn more »
Give kudos to tab author, rate the tab!
1 2 3 4 5
comments
print report bad tab
guest
You may want to rate the tab now too:
select rating
Wanna post a correction for this tab? Suggest correction