Oops, an error
Loading. Please wait.

Madder Of Time tab

19 views 1 this week
no commentswrite comment
1 2 3 4 5
3 more votes to show rating
add to favorites
×
Save as Personal and add changes to this tab that will be seen only by you. Learn more ›
×
You can save this tab as Personal to edit and correct it or add notes. All changes will be seen only by you. Learn more »
launch autoscroll
font size
0
reset
how to read this tab
guitar tuner
edit
Autoscroll
slow
fast
+/-
esc
set tempo
stop
About this tab version
As the author of this song, I know it to be correct. Was this info helpful? Yes No
MADDER OF TIME
From the 2001 release "Nuclear Family"


[Intro]

   F         C             A             G         
e|---------------------------------------------------|
B|---------------------------------------------------|
G|---------------------------------------------------| x2
D|-3-3-2h3p2-------3-2h3p2-3~----3-2h3p2-5-5-5-3-2~--|
A|-----------3~--------------------------------------|
E|---------------------------------------------------|


[Verse 1]

   F             C                 A                G
e|--------------------------------------------------------------------|
B|--------------------------------------------------------------------|
G|---------------5----------------------------------12----------------|
D|-3-------------5-----------------7----------------------------------|
A|-3-------------3-----------------7----------------10----------------|
E|-1-------------------------------5----------------------------------|

   Comprehending, I keep pretending everything is alright.

   F                C                     A                 G
e|--------------------------------------------------------------------|
B|--------------------------------------------------------------------|
G|------------------5----------------------------------------12-------|
D|-3----------------5---------------------7---------------------------|
A|-3----------------3---------------------7------------------10-------|
E|-1--------------------------------------5---------------------------|

   Couldn't wait for the day to fade away, and we turn it to the night.


[Pre-Chorus 1]

F                     G                        C                A
All the words you say, all the games you play, keep spinning in my mind.
F               G                         C
Nothing you can do, it's just a matter of time.



[Chrous 1]

   C             F         G
e|-------------------------------3---3-5-3--------------------|
B|---------------------------------3-------3-0----------------|
G|-5----------------------------------------------------------|
D|-5-------------3---------5----------------------------------|
A|-3-------------3---------5----------------------------------|
E|---------------1---------3----------------------------------|

        Na na na, na na na naaaaa

                 C             F         G
e|---------------------------------------------3---3-5-3------|
B|-----------------------------------------------3-------3-0--|
G|---------------5--------------------------------------------|
D|---------------5-------------3---------5--------------------|
A|---------------3-------------3---------5--------------------|
E|-----------------------------1---------3--------------------|

Just a matter of time - Na na na, na na na naaaaa



[Break]
   F         C             A             G         
e|---------------------------------------------------|
B|---------------------------------------------------|
G|---------------------------------------------------| x2
D|-3-3-2h3p2-------3-2h3p2-3~----3-2h3p2-5-5-5-3-2~--|
A|-----------3~--------------------------------------|
E|---------------------------------------------------|


[Verse 2]

   F             C              A                   G
e|--------------------------------------------------------------------|
B|--------------------------------------------------------------------|
G|---------------5-----------------------------------12---------------|
D|-3-------------5--------------7-------------------------------------|
A|-3-------------3--------------7--------------------10---------------|
E|-1----------------------------5-------------------------------------|

   Condesending, never ending - No, you'll always be the same.

   F                 C                   A                  G
e|--------------------------------------------------------------------|
B|--------------------------------------------------------------------|
G|-------------------5---------------------------------------12-------|
D|-3-----------------5-------------------7----------------------------|
A|-3-----------------3-------------------7-------------------10-------|
E|-1-------------------------------------5----------------------------|

   I keep pretending that you're sending something beautiful my way.


[Pre-Chorus 2]

F                     G                        C                A
All the words you say, all the games you play, keep spinning in my mind.
F               G                         C
Nothing you can do, it's just a matter of time.



[Chrous 2]

   C             F         G
e|-------------------------------3---3-5-3--------------------|
B|---------------------------------3-------3-0----------------|
G|-5----------------------------------------------------------|
D|-5-------------3---------5----------------------------------|
A|-3-------------3---------5----------------------------------|
E|---------------1---------3----------------------------------|

        Na na na, na na na naaaaa

                 C             F         G
e|---------------------------------------------3---3-5-3------|
B|-----------------------------------------------3-------3-0--|
G|---------------5--------------------------------------------|
D|---------------5-------------3---------5--------------------|
A|---------------3-------------3---------5--------------------|
E|-----------------------------1---------3--------------------|

Just a matter of time - Na na na, na na na naaaaa

                 C             F         G
e|---------------------------------------------3---3-5-3------|
B|-----------------------------------------------3-------3-0--|
G|---------------5--------------------------------------------|
D|---------------5-------------3---------5--------------------|
A|---------------3-------------3---------5--------------------|
E|-----------------------------1---------3--------------------|

Just a matter of time - Na na na, na na na naaaaa

                 C             F         G
e|---------------------------------------------3---3-5-3------|
B|-----------------------------------------------3-------3-0--|
G|---------------5--------------------------------------------|
D|---------------5-------------3---------5--------------------|
A|---------------3-------------3---------5--------------------|
E|-----------------------------1---------3--------------------|

Just a matter of time - Na na na, na na na naaaaa


[Solo]

   F             C               A                       G
e|-------------------------------17-17-17-17-17-15-13-13-13h15p13-13h15p13-13h15p13-13h15p13--|
B|-------------------------------17-17-17-17-17-----------------------------------------------|
G|-10~--10p9h10--12-12-12-10-12---------------------------------------------------------------|
D|--------------------------------------------------------------------------------------------|
A|--------------------------------------------------------------------------------------------|
E|--------------------------------------------------------------------------------------------|

   F             C                    A             G
e|-13~--13-13-13-13--12-12-12-12-12---17--17-17-17--18b~~-------------------------------------|
B|------13-13-13-13--12-12-12-12-12---17--17-17-17--------------------------------------------|
G|--------------------------------------------------------------------------------------------|
D|--------------------------------------------------------------------------------------------|
A|--------------------------------------------------------------------------------------------|
E|--------------------------------------------------------------------------------------------|


[Pre-Chorus 3]

F                     G                        C                A
All the words you say, all the games you play, keep spinning in my mind.
F               G                         C
Nothing you can do, it's just a matter of time.



[Chrous 3]

   C             F         G
e|-------------------------------3---3-5-3--------------------|
B|---------------------------------3-------3-0----------------|
G|-5----------------------------------------------------------|
D|-5-------------3---------5----------------------------------|
A|-3-------------3---------5----------------------------------|
E|---------------1---------3----------------------------------|

        Na na na, na na na naaaaa

                 C             F         G
e|---------------------------------------------3---3-5-3------|
B|-----------------------------------------------3-------3-0--|
G|---------------5--------------------------------------------|
D|---------------5-------------3---------5--------------------|
A|---------------3-------------3---------5--------------------|
E|-----------------------------1---------3--------------------|

Just a matter of time - Na na na, na na na naaaaa

                 C             F         G
e|---------------------------------------------3---3-5-3------|
B|-----------------------------------------------3-------3-0--|
G|---------------5--------------------------------------------|
D|---------------5-------------3---------5--------------------|
A|---------------3-------------3---------5--------------------|
E|-----------------------------1---------3--------------------|

Just a matter of time - Na na na, na na na naaaaa

                 C             F         G
e|---------------------------------------------3---3-5-3------|
B|-----------------------------------------------3-------3-0--|
G|---------------5--------------------------------------------|
D|---------------5-------------3---------5--------------------|
A|---------------3-------------3---------5--------------------|
E|-----------------------------1---------3--------------------|

Just a matter of time - Na na na, na na na naaaaa


[Outro]

   F         C             A             G         
e|-------------------------------------------------------|
B|-------------------------------------------------------|
G|-------------------------------------------------------|
D|-3-3-2h3p2-------3-2h3p2-3~----3-2h3p2-5-5-5-3-2~------|
A|-----------3~------------------------------------------|
E|--------------------------------------------------------|

   F         C             A             G             F
e|--------------------------------------------------------|
B|---------------------------------------1----------------|
G|-----------------------------------------3-0------------|
D|-3-3-2h3p2-------3-2h3p2-3~----3-2h3p2-------3-2-0---3--|
A|-----------3~--------------------------------------3-3--|
E|-----------------------------------------------------1--|



************************************

| h  Hammer-on
| p  Pull-off
| ~  Vibrato
| b  bend

************************************

            
            
Suggest correction
Creating personal tab
Creating personal tab
You can edit any tab online and save it as your Personal.

You can edit, replace or remove any tab part or add personal notes – all changes will be seen only by you.

Personal tabs can be accessed anytime from any device, even offline.
Learn more »
Give kudos to tab author, rate the tab!
1 2 3 4 5
comments
print report bad tab
guest
You may want to rate the tab now too:
select rating
Wanna post a correction for this tab? Suggest correction