Oops, an error
Loading. Please wait.

Mindfuck tab

57 views 1 this week
no commentswrite comment
1 2 3 4 5
3 more votes to show rating
add to favorites
×
Save as Personal and add changes to this tab that will be seen only by you. Learn more ›
×
You can save this tab as Personal to edit and correct it or add notes. All changes will be seen only by you. Learn more »
launch autoscroll
font size
0
reset
how to read this tab
guitar tuner
edit
Autoscroll
slow
fast
+/-
esc
set tempo
stop
MINDFUCK
From the 2001 release "Nuclear Family"

[Verse 1]
                        F#              C#                   B                   C#
You've got a split personality. Individuality never was your thing, and now it's over.
F#                        C#                        B     C#
But that's okay because I never really loved you anyway - Not like I told you.
F#                                   C#                                B     C#
You thought you knew me, I thought I knew you too, but I guess we were wrong about each other.
F#                        C#                            B    C#
And now I'm sitting here alone, and I'm enjoying all my time without another.



[Chorus 1]
F#                        C#                     D#                     B
And I'll show you what it really means to care - Run my fingers through another girl's hair.
F#             C#         D#           B
And that's the way that I wanted it to be.
F#                             C#                         D#                       B
Take me to shows, she'll never make me shop for clothes - Watch BMP, and then it's clear to me she knows
              F#         C#           D#        B
that it's the way that I wanted it to be. 



[Break]
   F#        C#        B        C#        
e|------------------------------------------|
B|------------------------------------------|
G|-11--------18--------16-------18----------|
D|------------------------------------------|
A|-9---------16--------14-------16----------|
E|------------------------------------------|

   F#        C#        B        C#        
e|------------------------------------------|
B|------------------------------------------|
G|-11--------18--------16-------18--16--15--|
D|------------------------------------------|
A|-9---------16--------14-------16--14--13--|
E|------------------------------------------|



[Verse 2]
              F#                                  C#                                    B   C#
Your lies are vicious. You're suspicious - always running around and playing games with me. I never minded. 
F#                           C#                            B    C#
Can't not be true, cuz I was doing the exact same thing to you. I wasn't blinded. 
F#                                   C#                                B     C#
You thought you knew me, I thought I knew you too, but I guess we were wrong about each other.
F#                        C#                            B    C#
And now I'm sitting here alone, and I'm enjoying all my time without another.



[Chorus 2]
F#                        C#                     D#                     B
And I'll show you what it really means to care - Run my fingers through another girl's hair.
F#             C#         D#           B
And that's the way that I wanted it to be.
F#                             C#                         D#                       B
Take me to shows, she'll never make me shop for clothes - Watch BMP, and then it's clear to me she knows
              F#         C#           D#        B
that it's the way that I wanted it to be.



[Solo]
   F#                   C#                   
e|----------------------------------14~~~~~~--|
B|----------------------------13h14-----------|
G|-------------------11h13s14-----------------|
D|-----9h11s13-11h13--------------------------|
A|-9h11---------------------------------------|
E|--------------------------------------------|

   D#                                B
e|-14h15p14-13h14p13-11h13p11-9h11p9-9h11p9------------------|
B|------------------------------------------11-9-11-9--------|
G|----------------------------------------------------11-10--|
D|-----------------------------------------------------------|
A|-----------------------------------------------------------|
E|-----------------------------------------------------------|

   F#                      C#                      
e|-------------------------9~~~~~~~~~~-----------6--|
B|------------------9h11p9--------------------------|
G|-11~~~~~~~~~~~-11---------------------------------|
D|--------------------------------------------------|
A|--------------------------------------------------|
E|--------------------------------------------------|

   D#                      B                      
e|-6h7p6-6h7p6-6h7p6-6h7p6-6h7s9-9s11-11s13-13-----|
B|-------------------------------------------------|
G|-------------------------------------------------|
D|-------------------------------------------------|
A|-------------------------------------------------|
E|-------------------------------------------------|

   F#                   C#                   
e|-14-14-16b16-14h16p14-16b16-14~~~~~~~--------|
B|---------------------------------------------|
G|---------------------------------------------|
D|---------------------------------------------|
A|---------------------------------------------|
E|---------------------------------------------|

   D#            B
e|-----------------------------------|
B|-----------------------------------|
G|-8b--6---6-------------------------|
D|-------8---8-6--------9-8---8-9s11-|
A|---------------8--8s9-----9--------|
E|-----------------------------------|

   F#                C#
e|-------14----14---------14----14-----------------|
B|-------------------------------------------------|
G|-11-11----11----11-11-11----11----11-------------|
D|-------------------------------------------------|
A|-------------------------------------------------|
E|-------------------------------------------------|

   D#                      B
e|-17-17-17-17-17-17-17-17-18-18-18-18-18-18-18-18-|
B|-------------------------------------------------|
G|-14-14-14-14-14-14-14-14-15-15-15-15-15-15-15-15-|
D|-------------------------------------------------|
A|-------------------------------------------------|
E|-------------------------------------------------|



[Chorus 3]
F#                        C#                     D#                     B
And I'll show you what it really means to care - Run my fingers through another girl's hair.
F#             C#         D#           B
And that's the way that I wanted it to be.
F#                             C#                         D#                       B
Take me to shows, she'll never make me shop for clothes - Watch BMP, and then it's clear to me she knows
              F#         C#           D#        B
that it's the way that I wanted it to be.

            
            
Suggest correction
Creating personal tab
Creating personal tab
You can edit any tab online and save it as your Personal.

You can edit, replace or remove any tab part or add personal notes – all changes will be seen only by you.

Personal tabs can be accessed anytime from any device, even offline.
Learn more »
Give kudos to tab author, rate the tab!
1 2 3 4 5
comments
print report bad tab
guest
You may want to rate the tab now too:
select rating
Wanna post a correction for this tab? Suggest correction