Oops, an error
Loading. Please wait.

Planets bass

version 2
version 2

Whole song

269 views 1 this week
no commentswrite comment
1 2 3 4 5
2 more votes to show rating
add to favorites
×
Save as Personal and add changes to this tab that will be seen only by you. Learn more ›
×
You can save this tab as Personal to edit and correct it or add notes. All changes will be seen only by you. Learn more »
launch autoscroll
font size
0
reset
guitar tuner
edit
Autoscroll
slow
fast
+/-
esc
set tempo
stop
Author
Difficulty
Planets-Short Stack Bass Tab


Intro
G-----------------|  
D-----------------|
A---------4-3-1---|
E-6---2-----------|

Main Riff
G----------------------------------------| 
D----------------------------------------|
A--------------------4444333311111111----|
E--66666666/22222222---------------------|

Verse x2
G----------------------------------------|
D----------------------------------------|
A----------------------------------------|
E--6646-46646-466464-44443333------------|

Main Riff x5
G----------------------------------------|
D----------------------------------------|
A--------------------4444333311111111----|
E--66666666/22222222---------------------|


Verse- Come in at 'and the cop calls'
G----------------------------------------|
D----------------------------------------|
A----------------------------------------|
E--6646-46646-466464---------------------|

Main Riff x4
G----------------------------------------|
D----------------------------------------|
A--------------------4444333311111111----|
E--66666666/22222222---------------------|

Play right after you finish the main riff
G----------------------------------------| 
D----------------------------------------|
A--4444333311111111----------------------|
E----------------------------------------|

Bridge- Come in at 'only to get to you'
G----------------------------------------|
D----------------------------------------|
A----------------------------------------|
E--6---6-2---2-4-------------------------|

Main Riff x6
G----------------------------------------|
D----------------------------------------|
A--------------------4444333311111111----|
E--66666666/22222222---------------------|

Ending- Play right after main riff
G----------------------------------------|
D----------------------------------------|
A--4444333311111111--44-33---------------|
E----------------------------------------|



It's not 100% correct but it sounds right

            
            
Suggest correction
Creating personal tab
Creating personal tab
You can edit any tab online and save it as your Personal.

You can edit, replace or remove any tab part or add personal notes – all changes will be seen only by you.

Personal tabs can be accessed anytime from any device, even offline.
Learn more »
Give kudos to tab author, rate the tab!
1 2 3 4 5
comments
print report bad tab
guest
You may want to rate the tab now too:
select rating
Wanna post a correction for this tab? Suggest correction