Oops, an error
Loading. Please wait.

Shimmy A Go Go tab

version 3
version 3

Whole song

Interactive

3,968 views 1 this week
2 commentsread comments
1 2 3 4 5
1 last vote to show rating
add to favorites
×
Save as Personal and add changes to this tab that will be seen only by you. Learn more ›
×
You can save this tab as Personal to edit and correct it or add notes. All changes will be seen only by you. Learn more »
launch autoscroll
font size
0
reset
how to read this tab
guitar tuner
edit
Autoscroll
slow
fast
+/-
esc
set tempo
stop
-------------------------------------------------------------------------------
                             Shimmy A Go Go - Short Stack
-------------------------------------------------------------------------------
Tabbed by: яσ¢қ ѕтαя
The other guys tab was good, but had heaps of mistakes.

Standard Tuning
|-----------------------------------------------------|
|-----------------------------------------------------|
|-----------------------------------------------------|
|----33--------33--------66--66----33-----------------|
|--11--4433------4433--44--44----11--4433-------------|
|------------22---------------------------------------|

|---------------------------------------------|
|---------------------------------------------|
|---------------------------------------------|
|----33--------33--------66--66--33-3h4-------|
|--11--4433------4433--44--44----------4------|
|------------22-------------------------------|
Band Comes In
|-----------------------------------------------------|
|-----------------------------------------------------|
|-----------------------------------------------------|
|----33--------33--------66--66----33-----------------|
|--11--4433------4433--44--44----11--4433-------------|
|------------22---------------------------------------|

|---------------------------------------------|
|---------------------------------------------|
|---------------------------------------------|
|----33--------33--------66--66--33-3h4-------|
|--11--4433------4433--44--44----------4------|
|------------22--------------------------1~---|

Verse: [x2] 
   Step one is your heart...
|-----------------------------------|
|-----------------------------------|
|------------------66-666-----------|
|--88-888--44-444--66-666--33-4-33--|
|--88-888--44-444--44-444--33-4-33--|
|--66-666--22-222----------11-2-11--|

|-----------------------------------|
|-----------------------------------|
|------------------66-666-----------|
|--88-888--44-444--66-666--33-4-33--|
|--88-888--44-444--44-444--33-4-33--|
|--66-666--22-222----------11-2-11--|


Pre-Chorus: Palm-muted bit just before the chorus
|----------|
|----------|
|----------|
|--3-3-33--|
|--3-3-33--|
|--1-1-11--|
   . . ..

Chorus:
|------------------------------------------|
|------------------------------------------|
|----------------------66666666------------|
|--88888888--44444444--66666666--33333333--|
|--88888888--44444444--44444444--33333333--|
|--66666666--22222222------------11111111--|

|------------------------------------------|
|------------------------------------------|
|----------------------66666666------------|
|--88888888--44444444--66666666--333-33-3--|
|--88888888--44444444--44444444--333-33-3--|
|--66666666--22222222------------111-11-1--|

|------------------------------------------|
|------------------------------------------|
|----------------------66666666------------|
|--88888888--44444444--66666666--33333333--|
|--88888888--44444444--44444444--33333333--|
|--66666666--22222222------------11111111--|

|---------------------------------------------------------|
|---------------------------------------------------------|
|----------------------66666666---------------------------|
|--88888888--44444444--66666666--33-3h4-3--3h4-3h4-3h4-3h4|
|--88888888--44444444--44444444----------4----------------|
|--66666666--22222222-------------------------------------|

Verse 2: (first half no guitar) 
  When I repeat confessions...
|--------------------------------|
|--------------------------------|
|--------------------------------|
|--------------------------43-43-|
|--1~-3-4----4-3-4~-6-8-4~-------|
|---------2~---------------------|

|-----------------------------------|
|-----------------------------------|
|------------------66-666-----------|
|--88-888--44-444--66-666--33-4-33--|
|--88-888--44-444--44-444--33-4-33--|
|--66-666--22-222----------11-2-11--|

|-----------------------------------|
|-----------------------------------|
|------------------66-666-----------|
|--88-888--44-444--66-666--33-4-33--|
|--88-888--44-444--44-444--33-4-33--|
|--66-666--22-222----------11-2-11--|

Pre-chorus:
|----------|
|----------|
|----------|
|--3-3-33--|
|--3-3-33--|
|--1-1-11--|
   . . ..

Chorus:
|------------------------------------------|
|------------------------------------------|
|----------------------66666666------------|
|--88888888--44444444--66666666--33333333--|
|--88888888--44444444--44444444--33333333--|
|--66666666--22222222------------11111111--|

|------------------------------------------|
|------------------------------------------|
|----------------------66666666------------|
|--88888888--44444444--66666666--333-33-3--|
|--88888888--44444444--44444444--333-33-3--|
|--66666666--22222222------------111-11-1--|

|------------------------------------------|
|------------------------------------------|
|----------------------66666666------------|
|--88888888--44444444--66666666--333333-43-|
|--88888888--44444444--44444444--333333----|
|--66666666--22222222------------111111----|

|------------------------------------------|
|------------------------------------------|
|----------------------66666666------------|
|--88888888--44444444--66666666--33333333--|
|--88888888--44444444--44444444--33333333--|
|--66666666--22222222------------11111111--|

Bridge:
|-----------------------------------------------------|
|-----------------------------------------------------|
|-----------------------------------------------------|
|----33--------33--------66--66----33-----------------|
|--11--4433------4433--44--44----11--4433-------------|
|------------22---------------------------------------|

|---------------------------------------------|
|---------------------------------------------|
|---------------------------------------------|
|----33--------33--------66--66--33-3h4-------|
|--11--4433------4433--44--44----------4------|
|------------22-------------------------------|

Solo:
|----------------------------------------|
|----------------------------------------|
|----------------------------------------|
|----443344--443344--6/8-6\4----44-----44|
|--11--------------44-------3h4----3h4---|
|----------22----------------------------|

|----------------------------------------|
|----------------------------------------|
|----------------------------------------|
|----443344--334433--6/8-6\4--3333-4444--|
|--11--------------44--------------------|
|----------22----------------------------|

|----------------------------------------|
|----------------------------------------|
|----------------------------------------|
|----443344--443344--6/8-6\4----44-----44|
|--11--------------44-------3h4----3h4---|
|----------22----------------------------|

Verse:
|-----------------------------------|
|-----------------------------------|
|------------------66-666-----------|
|--88-888--44-444--66-666--33-4-33--|
|--88-888--44-444--44-444--33-4-33--|
|--66-666--22-222----------11-2-11--|

|-----------------------------------|
|-----------------------------------|
|------------------66-666-----------|
|--88-888--44-444--66-666--33-4-33--|
|--88-888--44-444--44-444--33-4-33--|
|--66-666--22-222----------11-2-11--|

(A pick slide sounds good instead of the synth at the start of the chorus)

|------------------------------------------|
|------------------------------------------|
|----------------------66666666------------|
|--88888888--44444444--66666666--33333333--|
|--88888888--44444444--44444444--33333333--|
|--66666666--22222222------------11111111--|

|------------------------------------------|
|------------------------------------------|
|----------------------66666666------------|
|--88888888--44444444--66666666--333-33-3--|
|--88888888--44444444--44444444--333-33-3--|
|--66666666--22222222------------111-11-1--|

|------------------------------------------|
|------------------------------------------|
|----------------------66666666------------|
|--88888888--44444444--66666666--333333-43-|
|--88888888--44444444--44444444--333333----|
|--66666666--22222222------------111111----|

|------------------------------------------|
|------------------------------------------|
|----------------------66666666------------|
|--88888888--44444444--66666666--33-33-3~--|
|--88888888--44444444--44444444--33-33-3~--|
|--66666666--22222222------------11-11-1~--|

| /  slide up
| \  slide down
| h  hammer-on
| p  pull-off
| ~  sustain
| +  harmonic
| .  Mute note
===============================================================================

            
            
Suggest correction
Creating personal tab
Creating personal tab
You can edit any tab online and save it as your Personal.

You can edit, replace or remove any tab part or add personal notes – all changes will be seen only by you.

Personal tabs can be accessed anytime from any device, even offline.
Learn more »
Give kudos to tab author, rate the tab!
1 2 3 4 5
comments
print report bad tab
2 comments total.
0 reply
яσ¢қ ѕтαя 31 Dec 05, 2009 12:41 AM

made a mistake - the held F (fret 1 on the E string) at the end of the introduction should be an A# (fret 1 on the A string)

thanks!
яσ¢қ ѕтαя

+1 reply
folklore666 269 Dec 20, 2009 05:56 AM

Yeh this is a good tab but i reckon in the end of the intro it sounds better with..

D|-3-3-3-3-3h4---------
A|-------------4~------

guest
You may want to rate the tab now too:
select rating
Wanna post a correction for this tab? Suggest correction