Oops, an error
Loading. Please wait.

Jesus Lizard tab

694 views 1 this week
no commentswrite comment
1 2 3 4 5
3 more votes to show rating
add to favorites
×
Save as Personal and add changes to this tab that will be seen only by you. Learn more ›
×
You can save this tab as Personal to edit and correct it or add notes. All changes will be seen only by you. Learn more »
launch autoscroll
font size
0
reset
how to read this tab
guitar tuner
edit
Autoscroll
slow
fast
+/-
esc
set tempo
stop
Author
Song-Jesus Lizard(on the cd its misprinted as centipede sisters but its realy JL)
Band-Showbread
Album-Age Of Reptiles


Verse Riff play 2x for each verse
(Overdrive)

|-----------------------------------------------------------------------------------|
|-----------------------------------------------------------------------------------|
|-----------------------------------------------------------------------------------|
|------------2-4-5-4-22-2-2-4-5-4-2-------------5-4-2-4-555-4b5r4rb5r4b5r4----------|
|-2h4-4-4-------------------------------2h4-4-4-------------------------------------|
|-----------------------------------------------------------------------------------|



Chorus play 2x for first Chorus and 4x for 2nd you figure out strumming
(Heavy Distortion)

|-----------|
|-----------|
|-4/6-------|
|-4/6--5-4-2|
|-2/4--5-4-2|
|------3-2-0|


2nd Verse is same as 1st but the 2nd verse is twice as long and for the first half there 
no guitar only effects once the first half is done then come in with the same thing as 
verse listen to the song and you?ll see what I mean

also I believe there is some guitar with phase and some echo on it but I can?t make it 
so I cant tab it for you

2nd Chorus is 4x through the Chorus Riff
Bridge Part A
For a while its just singing and bass then just before the solo the guitar starts 
this

|--------------------|
|14-14-14-14-14b15r14|
|--------------------|
|--------------------|
|--------------------|
|--------------------|
The last note that is bent is Tremolo Picked(Fast Picking) and is a slow gradual bend 
then quickly released back the the C# listen to the song to see what I mean

Guitar Solo(Bridge Part B)

|---------------------------------14-15-14-12-14-15-17|
|-14-12-14-17-14-12-14-17-----------------------------|
|-----------------------------------------------------|
|-----------------------------------------------------|
|-----------------------------------------------------|
|-----------------------------------------------------|

|---------------------------------14-15/17-17/19-19/21-21|
|-14-12-14-17-14-12-14-17--------------------------------|
|--------------------------------------------------------|
|--------------------------------------------------------|
|--------------------------------------------------------|
|--------------------------------------------------------|

All Tremolo Picked except for the notes on the second stanza on the high E String which 
all picked once if you don?t understand what im saying listen to the song and you?ll 
it

At this point the 2nd guitarist plays this
G|-4b/6b7r6|
D|-4b/6b7r6|
A|-2b/4b5r4|

he uses a whammy bar to do this but since I don?t have one on my Les Paul this is how I 
it.

Then it goes into the 3rd and final chorus it is 3x through of the chorus riff and then 
the 4th time he plays this

|------------------------|
|------------------------|
|-6-6-------------4-4/6~~|
|-6-6-5-5-4-4-2-2-4-4/6~~|
|-4-4-5-5-4-4-2-2-2-2/4~~|
|-----3-5-2-2-0-0--------|

and that ends the song
just so you know the verse parts are played by the 1st guitarist the part I said I 
tab in the 2nd verse is played by the 2nd guitarist all choruses are played by both solo is 
1st presolo is by 1st the little thing before the last chorus is played by the 2nd guitarist

if you have any comments or fixes email me at smboo28@gmail.com

            
            
Suggest correction
Creating personal tab
Creating personal tab
You can edit any tab online and save it as your Personal.

You can edit, replace or remove any tab part or add personal notes – all changes will be seen only by you.

Personal tabs can be accessed anytime from any device, even offline.
Learn more »
Give kudos to tab author, rate the tab!
1 2 3 4 5
comments
print report bad tab
guest
You may want to rate the tab now too:
select rating
Wanna post a correction for this tab? Suggest correction