Oops, an error
Loading. Please wait.

Whats To Come tab

135 views 1 this week
no commentswrite comment
1 2 3 4 5
2 more votes to show rating
add to favorites
×
Save as Personal and add changes to this tab that will be seen only by you. Learn more ›
×
You can save this tab as Personal to edit and correct it or add notes. All changes will be seen only by you. Learn more »
launch autoscroll
font size
0
reset
how to read this tab
guitar tuner
edit
Autoscroll
slow
fast
+/-
esc
set tempo
stop
Author
Difficulty
e|-----------|
B|-----------|
G|-----------|
D|----7------|
A|----7------|
E|----5------|
strum this chord and let ring out

e|-------------------------------------------------------------------------|
B|-------------------------------------------------------------------------|
G|--------------------5-5-5-5-5-5-5-5-7-7-7-7-7-7-7-7----------------------|
D|----7-7-7-7-7-7-7-7-5-5-5-5-5-5-5-5-7-7-7-7-7-7-7-7-5-5-5-5-5-5-5-5-3-5--|
A|----7-7-7-7-7-7-7-7-3-3-3-3-3-3-3-3-5-5-5-5-5-5-5-5-5-5-5-5-5-5-5-5-3-5--|
E|----5-5-5-5-5-5-5-5---------------------------------3-3-3-3-3-3-3-3-1-3--|
.......palm mute all of this intro              PART A

e|--------------------------------|
B|--------------------------------|
G|----9-7-5-5--7-5-4-4/9----------|
D|----9-7-5-5--7-5-4-4/9----------|
A|----7-5-3-3--5-3-2-2/7----------|
E|--------------------------------|
PART B this part is basically the bridge

e|-------------------------------------------------|
B|-------------------------------------------------|
G|------------------------5-5-5-5-5-------5--------|
D|----7-7-7-7-7-5-5-5-5-5-5-5-5-5-5-5-5-5-5-5------|
A|----7-7-7-7-7-5-5-5-5-5-3-3-3-3-3-5-5-5-3-5------|
E|----5-5-5-5-5-3-3-3-3-3-----------3-3-3---3------|
PART C this is the verse

e|--------------------------------------------|
B|--------------------------------------------|
G|----9-7-5-5--7-5-4-4/9----------------------|
D|----9-7-5-5--7-5-4-4/9------5--5--5---------|
A|----7-5-3-3--5-3-2-2/7------3--3--3---------|
E|----------------------------3--3--3---------|
play PART B again two counts then play this for the third count

guitar stops and bass plays while you strum this chord
e|---------|
B|---------|
G|---------|
D|----5----|
A|----5----|
E|----3----|
then play PART A palm muted twice and then then strum the chords open twice

SONG STRUCTURE: 
A
B(3X)
C(4X)
B(3X)with add on too third count
C(4X)
A(palm muted 2X, then chords open 2X)

            
            
Suggest correction
Creating personal tab
Creating personal tab
You can edit any tab online and save it as your Personal.

You can edit, replace or remove any tab part or add personal notes – all changes will be seen only by you.

Personal tabs can be accessed anytime from any device, even offline.
Learn more »
Give kudos to tab author, rate the tab!
1 2 3 4 5
comments
print report bad tab
guest
You may want to rate the tab now too:
select rating
Wanna post a correction for this tab? Suggest correction