Oops, an error
Loading. Please wait.

Issei No Sei tab

153 views 9 this week
no commentswrite comment
1 2 3 4 5
3 more votes to show rating
add to favorites
×
Save as Personal and add changes to this tab that will be seen only by you. Learn more ›
×
You can save this tab as Personal to edit and correct it or add notes. All changes will be seen only by you. Learn more »
launch autoscroll
font size
0
reset
how to read this tab
guitar tuner
edit
Autoscroll
slow
fast
+/-
esc
set tempo
stop
|-------------------------------------------------------------------------------|
                             Issei No Sei - Shuuhei Kita (TV Size)
|-------------------------------------------------------------------------------|
Tabbed by: Arvin Guinto
E-mail: Equilibrium.dxn@gmail.com
youtube.com/watch?v=tFavmVw5Oyw


Tuning: Standard

[INTRO]

    D

e|--0--0--0-------0--2--0-------------------|
B|--3--3--3--3----3--------3-----2h3--------|
G|--2--2--2-------2-----------2-------------|
D|--0--0--0-------0-------------------------|
A|------------------------------------------|
E|------------------------------------------|

[VERSE]

    D                                 Em7                               G

e|--0-----0--------0--------0---------0-----0--------0--------0---------0-----0------------------|
B|--3--3-----3--------3--------3------3--3-----3--------3--------3------1--1-----1---------------|
G|--2-----------2--------2--------2---1-----------1--------1--------1---0-----------0------------|
D|--0---------------------------------0---------------------------------0------------------------|
A|----------------------------------------------------------------------2------------------------|
E|----------------------------------------------------------------------3------------------------|
    Mata sonna kao shite~             kuchibiru kamishimete~            yowasa o


    A               D

e|--0-----0---------0-----0--------3--------0----------------------------------------------------|
B|--3--3-----3------3--3-----3-----3-----3-----3-------------------------------------------------|
G|--2-----------2---2-----------2-----2-----------2----------------------------------------------|
D|--2---------------0----------------------------------------------------------------------------|
A|--0--------------------------------------------------------------------------------------------|
E|-----------------------------------------------------------------------------------------------|
    kakushi         teru kedo~


    D                                 Em7      
                         G
e|--0-----0--------0--------0---------0-----0--------0--------0---------0-----0------------------|
B|--3--3-----3--------3--------3------3--3-----3--------3--------3------1--1-----1---------------|
G|--2-----------2--------2--------2---1-----------1--------1--------1---0-----------0------------|
D|--0---------------------------------0---------------------------------0------------------------|
A|----------------------------------------------------------------------2------------------------|
E|----------------------------------------------------------------------3------------------------|
    Sono hitomi no oku~               uzukumaru kimi ga~                hontou no


    A                D

e|--0-----0----------3--3--2---2--2--0--2--2--2--------------------------------------------------|
B|--3--3-----3-------3--3--3---3--3--3--3--3--3--------------------------------------------------|
G|--2-----------2----2--2--2---2--2--2--2--2--2--------------------------------------------------|
D|--2----------------0--0--0---0--0--0--0--0--0--------------------------------------------------|
A|--0--------------------------------------------------------------------------------------------|
E|-----------------------------------------------------------------------------------------------|
    kokoro nara~

[PRE CHORUS]

      G            A               Bm            D
   Omotte nai te hito de fuan de nande itai no motte n da

      G            A
   Boku ni sotto azuke te yo
      
e|---------------------------------3--2--3--3s5-------|
B|----------------------------------------------------|
G|----------------------------------------------------|
D|----------------------------------------------------|
A|----------------------------------------------------|
E|----------------------------------------------------|
  
[CHORUS]

     D               F#            Bm               D 
   Sugu ja muri to omou no nara ba sukoshi zutsu de ii

e|--------------------------------------------------------0----------|
B|-----------------------------------------------------------3-------|
G|--------------------------------------------------------------2----|
D|-------------------------------------------------------------------|
A|-------------------------------------------------------------------|
E|-------------------------------------------------------------------|                 
 
    G         A      D     Bm      G                 A
  Tsubasa no nai bokura kitto tobenai to kimetsuketeru dake

    D             F#            Bm             D 
  Koe no kagiri kimi o yobu yo mayowa nai you ni
 
e|--------------------------------------------------------0----------|
B|-----------------------------------------------------------3-------|
G|--------------------------------------------------------------2----|
D|-------------------------------------------------------------------|
A|-------------------------------------------------------------------|
E|-------------------------------------------------------------------| 

    G      A       D   Bm    G           A            G
  Fuwari kokoro maiagare ano kaze ni nosete issei no sei


************************************

| /   slide up
| \   slide down
| h   hammer-on
| p   pull-off
| ~   vibrato
| +   harmonic
| x   Mute note
| b   Bend
| pb  Pre-bend
| br  Bend release
| pbr Pre-bend release
| brb Bend release bend

************************************

            
            
Suggest correction
Creating personal tab
Creating personal tab
You can edit any tab online and save it as your Personal.

You can edit, replace or remove any tab part or add personal notes – all changes will be seen only by you.

Personal tabs can be accessed anytime from any device, even offline.
Learn more »
Give kudos to tab author, rate the tab!
1 2 3 4 5
comments
print report bad tab
guest
You may want to rate the tab now too:
select rating
Wanna post a correction for this tab? Suggest correction