Oops, an error
Loading. Please wait.

Drunk Off Your Love tab

1,254 views 12 this week
no commentswrite comment
1 2 3 4 5
2 more votes to show rating
add to favorites
×
Save as Personal and add changes to this tab that will be seen only by you. Learn more ›
×
You can save this tab as Personal to edit and correct it or add notes. All changes will be seen only by you. Learn more »
launch autoscroll
font size
0
reset
how to read this tab
guitar tuner
edit
Autoscroll
slow
fast
+/-
esc
set tempo
stop
Author
Difficulty
-------------------------------------------------------------------------------
        Shwayze And Cisco - Drunk Off Your Love (feat. Sky Blu of LMFAO)
-------------------------------------------------------------------------------


Tuning: Standard

Intro: (Also used in interlude and last verse, but then the 8th bar is the same as the 4th.)
     d u   d   d   u  u   u  d         d u  d  d  u  u   u  d
e|----------------------------------|--8-8--8--x--8--8---8--8------------------------|
B|--11-11--11--x---11-11--11-11-----|------------------------------------------------|
G|----------------------------------|--5-5--5--x--5--5---5--5------------------------|
D|--8--8---8---x---8--8---8--8------|------------------------------------------------|
A|----------------------------------|------------------------------------------------|
E|----------------------------------|------------------------------------------------|

    d  u  d   d u  d  u  d  u  d        d  u d    d   u  u   u  d
e|--11-11-11--x-11-11-11-11-11-11---|--10-10-10---x---8--8---8--8--------------------|
B|----------------------------------|------------------------------------------------|
G|---8--8--8--x--8--8--8--8--8--8---|--7--7--7----x---5--5---5--5--------------------|
D|----------------------------------|------------------------------------------------|
A|----------------------------------|------------------------------------------------|
E|----------------------------------|------------------------------------------------|

     d u   d   d   u  u   u  d         d u  d  d  u  u   u  d
e|----------------------------------|--8-8--8--x--8--8---8--8------------------------|
B|--11-11--11--x---11-11--11-11-----|------------------------------------------------|
G|----------------------------------|--5-5--5--x--5--5---5--5------------------------|
D|--8--8---8---x---8--8---8--8------|------------------------------------------------|
A|----------------------------------|------------------------------------------------|
E|----------------------------------|------------------------------------------------|

    d  u  d   d u  d  u  d  u  d        d 
e|--11-11-11--x-11-11-11-11-11-11---|--------------------(8)-------------------------|
B|----------------------------------|--11\---------(8p11-----11--8p11)---------------|
G|---8--8--8--x--8--8--8--8--8--8---|------------------------------------------------|
D|----------------------------------|---8\-------------------------------------------|
A|----------------------------------|------------------------------------------------|
E|----------------------------------|------------------------------------------------|



After this play chords. 
The strumming pattern is exactly the same as the one in the intro - except the very last bar.

The chords used are:

    Bb   Cm      Eb    Dm    D     F
e|--6-----3------6-----5-----5-----8----|
B|--6-----4------8-----6-----7-----10---|
G|--7-----5------8-----7-----7-----10---|
D|--8-----5------8-----7-----7-----10---|
A|--8-----3------6-----5-----5-----8----|
E|--6-----x------x-----x-----x-----x----|

The chords D & F are only used in the bridge.

They are played like this in the verse & chorus if you divide them into bars:
|Bb   |Cm   |
|Eb   |Dm Cm|





Chorus:
         Bb
Feelin’ tipsy
                 Cm
When your lips a-kiss me
                Eb
And I can't control myself
          Dm       Cm
Baby I know myself
            Bb                    Cm
Baby the whiskey got me feelin’ frisky
               Eb
And I want to know you pretty baby
Dm               Cm
Know you pretty baby





Verse:
                   Bb
I wanna hold your hand like an old school jam
              Cm
And you're a classic
                   Eb
Can I be your man?

We can dance in the sand till the tide rolls in
              Dm             Cm
And when the sun sets lets do it again
       Bb
If you upset, I can show you how to grin
       Cm
If you wanna dance just tell me where and when
Eb                             Dm             Cm
Babe, when the party ends is when it all just begins

               Bb
Now crack the windows

Slow down the tempo
                Cm
Quit making it hard when it's so simple
Eb
Sexual innuendos
               Dm              Cm
Playing these games like Nintendo... 
 Bb
64 ways to say I love ya
         Cm
Took me five days just to touch ya
        Eb
On the sixth day, I hit the lotto
        Eb (slide down like in the intro)
Take a shot straight out the bottle





Chorus: (Same chords as the chorus above!)

Feelin’ tipsy
When your lips a-kiss me
And I can't control myself
Baby I know myself
Baby the whiskey got me feelin’ frisky
And I want to know you pretty baby
Know you pretty baby





Interlude: (Play the same riff used in the intro here.)

I'm drunk off your love (Drunk off your love)
(You got me) Drunk off your love (Drunk off your love)
(You got me) Drunk off your love (Drunk off your love)
(You got me) Drunk off your love (Drunk off your love)





Verse: (Same chords as in the verse above.)

Your love it makes me nervous
On the freeway and I'm swerving
Your curves a distraction
And your lips are just like bourbon
'Cuz I'm seeing double-vision baby
And I'm certain
That I'll be the one that's hurtin’
When we wake up and it's over
No makeup and we're sober

So it begins:
Now crack the windows
Slow down the tempo
Quit making it hard when it's so simple
Sexual innuendos
Playing these games like Nintendo... 
64 ways to say I love ya
Took me five days just to touch ya
On the sixth day, I hit the lotto
Take a shot straight out the bottle





Chorus: (Same chords as the choruses above!)

Feelin’ tipsy
When your lips a-kiss me
And I can't control myself
Baby I know myself
Baby the whiskey got me feelin’ frisky
And I want to know you pretty baby
Know you pretty baby





Interlude: (Play the same riff used in the intro here.)

I'm drunk off your love (Drunk off your love)
(You got me) Drunk off your love (Drunk off your love)
(You got me) Drunk off your love (Drunk off your love)
(You got me) Drunk off your love (Drunk off your love)





Bridge:

   Bb
A blind man can see you're fly

Intoxicated, DUI
  D
Luckily, I don't have to drive

I gotta chauffeur so sit back and enjoy the ride
           Eb
Where you wanna go?

We can go tonight

Leavin’ them legs vibratin’ like a motorbike
  F
Vroom, vroom

From night till noon

Your man says cool

'Cuz your with Sky Blue (Hey! )





Verse: (Play the riff used in the intro here.)

Everybody it's a party
Baby gotta body like a bottle of bacardi
Lips like tequila
I wish I could taste ya
I think I gotta shot but I don't wanna chaser

Adios! 
Memory eraser
Poppin' champagne like a showtime Lakers
Real estate
I needa few acres
So you and me don't wake them neighbors





Chorus: (Same chords as the choruses above!)

Feelin’ tipsy
When your lips a-kiss me
And I can't control myself
Baby I know myself
Baby the whiskey got me feelin’ frisky
And I want to know you pretty baby
Know you pretty baby




************************************

| /   slide up
| \   slide down
| h   hammer-on
| p   pull-off
| ~   vibrato
| +   harmonic
| x   Mute note
| b   Bend
| pb  Pre-bend
| br  Bend release
| pbr Pre-bend release
| brb Bend release bend

************************************

            
            
Suggest correction
Creating personal tab
Creating personal tab
You can edit any tab online and save it as your Personal.

You can edit, replace or remove any tab part or add personal notes – all changes will be seen only by you.

Personal tabs can be accessed anytime from any device, even offline.
Learn more »
Give kudos to tab author, rate the tab!
1 2 3 4 5
comments
print report bad tab
guest
You may want to rate the tab now too:
select rating
Wanna post a correction for this tab? Suggest correction