Oops, an error
Loading. Please wait.

Dont Bring Me Down tab

by Sia
334 views 6 this week
no commentswrite comment
1 2 3 4 5
3 more votes to show rating
add to favorites
×
Save as Personal and add changes to this tab that will be seen only by you. Learn more ›
×
You can save this tab as Personal to edit and correct it or add notes. All changes will be seen only by you. Learn more »
launch autoscroll
font size
0
reset
how to read this tab
guitar tuner
edit
Autoscroll
slow
fast
+/-
esc
set tempo
stop
-------------------------------------------------------------------------------
                             Don't Bring Me Down - Sia
-------------------------------------------------------------------------------
Tabbed by:majorseventh
E-mail:cwarner3000gmail.com


Just a note on the song, on live versions he plays F#m 244222 but on the record you can clearly hear
F#m7 (open high e string) and to me it sounds most similar to the second chord on Radiohead 
Fake Plastic Trees 2x0220 so I used this chord below. He plays the E7sus4 with root on second fret of a 
string hence the parentheses on open low E string. There is a hammer on at the end of some verses which
I showed below heard best at 0:24. Also when playing live you can see him play Ebm 6887 and then Bmaj7 
played with thumb on low E string 7th fret 7x887x


Chords
F#m7   2x0220
A      x02220
Dmaj9  xx0220
E7sus4 x20200
A      x02220 and x0x655
Dm     xx0231 and xx0765
Ebm    x6887
Bmaj7  7x887x


Tuning:Standard EADGBe

Intro and Verse Chords
   F#m7     A      Dmaj9   E7sus4
e|--0-------0-------0-------0------------------------------------------------|
B|--2-------2-------2-------0------2h3---------------------------------------|
G|--2-------2-------2-------2------2-----------------------------------------|
D|--0-------2-------0-------0------------------------------------------------|
A|--x-------0---------------2------2-----------------------------------------|
E|--2----------------------(0)-----------------------------------------------|

 Chorus 1:58 (guitar and keyboard combined)
    A              Dm               A               Dm 
e|---------0---------------1---0----5-------7---------------5---7------------|
B|-----2-----2---2-----3---------3------5-------5---6---6--------------------|
G|---2---2-----2-----2---2---2-2------6---6---6---6---7---7---7---7----------|
D|-----------------0--------------------------------0------------------------|
A|--0-------------------------------0----------------------------------------|
E|---------------------------------------------------------------------------|
    Ebm            Bmaj7            Ebm            Bmaj7
e|--6------------------------------------------------------------------------|
B|----------6---7-------7---6---------------6---7---9---7---6----------------|
G|------8-------8---------------8-------8-----------------------8------------|
D|----8---8---8---8---8---8---8---8---8---8---8---8---8---8---8---8----------|
A|--6-------------------------------6----------------------------------------|
E|------------------7-------------------------------7------------------------|



Dont Bring Me Down Chords

F#m7           A     
Faint light of dawn
    Dmaj9                             E7sus4   
I'm listening to you breathing in and breathing out needing nothing
F#m7         A
You're honey dipped
        Dmaj9                       E7sus4
You are beautiful, floating clouds, soft world, I can't feel my lips

A         Dm                    A
I'm going down, I don't want to change
          Dm                   Ebm
I'm going down, going down the drain

Ebm         Bmaj7
Don't bring me down, I beg you
Ebm         Bmaj7
Don't bring me down, I won't let you
Ebm            Bmaj7
Don't bring me down

F#m7 A Dmaj9 E7sus4

F#m7               A                Dmaj9               
Then all of that's annulled and I'm anyone's everyone's, 
E7sus4
We are one your face becomes the sun
F#m7          A                         Dmaj9    
And I'm addicted to the joy that the little things

Those little things
   E7sus4
The little things they bring

A         Dm                    A
I'm going down, I don't want to change
          Dm                   Ebm
I'm going down, going down the drain

[repeat chorus]

F#m7                A                Dmaj9      E7sus4                    
So now for restless mind, I could go either way

A                 Dm                  A
Oh but, I'm going down, I don't wanna change
          Dm                     Ebm
I'm going down, going down the drain

Ebm         Bmaj7
Don't bring me down, I beg you
Ebm         Bmaj7
Don't bring me down, I won't let you
Ebm         Bmaj7
Don't bring me down, I beg you
Ebm         Bmaj7
Don't bring me down, don't let me
Ebm         Bmaj7
Don't bring me down,
Ebm         Bmaj7
Don't bring me down, I won't let you
Ebm         Bmaj7
Don't bring me down,

F#m7 A Dmaj9 E7sus4


F#m7                 A
There's nothing left to choose
Dmaj9   
Oh I fight a word, I am right here
E7sus4
Stay the night, protect me

************************************

| /   slide up
| \   slide down
| h   hammer-on
| p   pull-off
| ~   vibrato
| +   harmonic
| x   Mute note
| b   Bend
| pb  Pre-bend
| br  Bend release
| pbr Pre-bend release
| brb Bend release bend

************************************

            
            
Suggest correction
Creating personal tab
Creating personal tab
You can edit any tab online and save it as your Personal.

You can edit, replace or remove any tab part or add personal notes – all changes will be seen only by you.

Personal tabs can be accessed anytime from any device, even offline.
Learn more »
Give kudos to tab author, rate the tab!
1 2 3 4 5
comments
print report bad tab
guest
You may want to rate the tab now too:
select rating
Wanna post a correction for this tab? Suggest correction