Oops, an error
Loading. Please wait.

District tab

1,546 views 3 this week
2 commentsread comments
1 2 3 4 5
2 more votes to show rating
add to favorites
×
Save as Personal and add changes to this tab that will be seen only by you. Learn more ›
×
You can save this tab as Personal to edit and correct it or add notes. All changes will be seen only by you. Learn more »
launch autoscroll
font size
0
reset
how to read this tab
guitar tuner
edit
Autoscroll
slow
fast
+/-
esc
set tempo
stop
-------------------------------------------------------------------------------
                             district - sick of it all
-------------------------------------------------------------------------------

Tabbed by: luke cerri
Email: l_cerri@hotmail.com

Tuning: normal tuning
 dont play anything at the begining because its just the drums & bass
 but when thats finished start playing this

e|---------------------------------------------------------------------------
B|---------------------------------------------------------------------------
G|---------------------------------------------------------------------------
D|-555--888--666--55555555--888--666-----------------------------------------
A|-555--888--666--55555555--888--666-----------------------------------------
E|-555--888--666--55555555--888--666---cary on playing this through the verse
pm ==================================
''districs burning to the ground'' 
e|---------------------------------------------------------------------------
B|---------------------------------------------------------------------------
G|---------------------------------------------------------------------------
D|-1-0000--xx--1-0000--xx--1-0000--xx-1-0000---------------------------------
A|-1-0000--xx--1-0000--xx--1-0000--xx-1-0000---------------------------------
E|-1-0000--xx--1-0000--xx--1-0000--xx-1-0000---------------------------------

''now the choice is up to us''
e|--------------------------------------------------------------------------
B|--------------------------------------------------------------------------
G|--5--------5--------5-----5--5--------------------------------------------
D|--5--------5--------5-----5--5--------------------------------------------
A|--5--------5--------5-----5--5--------------------------------------------
E|--------------------------------------------------------------------------

e|---------------------------------------------------------------------------|
B|---------------------------------------------------------------------------|
G|---------------------------------------------------------------------------|
D|-555--888--666-55555555-888-666-555----------------------------------------|
A|-555--888--666-55555555-888-666-555----------------------------------------|
E|-555--888--666-55555555-888-666-555------repeat this ----------------------|
pm ==================================
after this do this the chorus
e|---------------------------------------------------------------------------|
B|---------------------------------------------------------------------------|
G|----5---------------5------------------------------------------------------|
D|-5--5---8----2----5-5--8----2---5------------------------------------------|
A|-5--5---8----2----5-5--8----2---5------------------------------------------|
E|-5------8----2----5----8----2---5-----repeat this until chorus ends--------|

then its just the guitar on its oun doing this
e|---------------------------------------------------------------------------|
B|---------------------------------------------------------------------------|
G|---------------------------------------------------------------------------|
D|--555--888--666---55555555--888--666--555-----repeat this------------------|
A|--555--888--666---55555555--888--666--555----------------------------------|
E|--555--888--666---55555555--888--666--555------''locked up''---------------|
pm ==========================================
e|---------------------------------------------------------------------------|
B|---------------------------------------------------------------------------|
G|---------------------------------------------------------------------------|
D|-1-0000-xx-1-0000-xx-1-0000-xx-1-0000--------------------------------------|
A|-1-0000-xx-1-0000-xx-1-0000-xx-1-0000--------------------------------------|
E|-1-0000-xx-1-0000-xx-1-0000-xx-1-0000--------------------------------------|

e|-------3-------2-------1--------------------------------------------------|
B|-------3-------2-------1--------------------------------------------------|
G|-------3-------2-------1--------------------------------------------------|
D|----------------------------1-0-1-0-000-----------------------------------|
A|----------------------------1-0-1-0-000-----------------------------------|
E|-1-000---1-000---1-000------1-0-1-0-000-----------------------------------|

CRIMINAL!
e|---------------------------------------------------------------------------|
B|---------------------------------------------------------------------------|
G|---------------------------------------------------------------------------|
D|-1-00-1-0-1-0-1-3333-----------------------------10111113------------------|
A|-1-00-1-0-1-0-1-3333-----------------------------10111113------------------|
E|-1-00-1-0-1-0-1-3333---------repeat this--then---10111113------------------|

PURIFIED!
e|---------------------------------------------------------------------------|
B|---------------------------------------------------------------------------|
G|---------------------------------------------------------------------------|
D|---------------------------------------------------------------------------|
A|---------------------------------------------------------------------------|
E|--DO THE SAME AS THE CRIMINAL BIT------------------------------------------|

WHEN PURIFIED STOPS DO THIS
e|---------------------------------------------------------------------------|
B|---------------------------------------------------------------------------|
G|---------------------------------------------------------------------------|
D|-1-0-1-0-xx-1-0-1-0-xx-1-0-1-0-xx-11111------------------------------------|
A|-1-0-1-0-xx-1-0-1-0-xx-1-0-1-0-xx-11111------------------------------------|
E|-1-0-1-0-xx-1-0-1-0-xx-1-0-1-0-xx-11111------------------------------------|

''someday a real rain is gonna come''
e|---------------------------------------------------------------------------|
B|---------------------------------------------------------------------------|
G|---5----------------5------------------------------------------------------|
D|-5-5-8-----2-----5--5--8-----2-----5---------------------------------------|
A|-5-5-8-----2-----5--5--8-----2-----5---------------------------------------|
E|-5---8-----2-----5-----8-----2-----5--------repeat this until chorus ends--|

then do this for the outro
e|---------------------------------------------------------------------------|
B|---------------------------------------------------------------------------|
G|---------------------------------------------------------------------------|
D|-555-888-666-55555555-888-666-55555555-888-666-55555555-888-666-555--------|
A|-555-888-666-55555555-888-666-55555555-888-666-55555555-888-666-555--------|
E|-555-888-666-55555555-888-666-55555555-888-666-55555555-888-666-555--------|
pm ===================================================================
e|---------------------------------------------------------------------------|
B|---------------------------------------------------------------------------|
G|---------------------------------------------------------------------------|
D|---------------------------------------------------------------------------|
A|---------------------------------------------------------------------------|
E|--then do the same as above but not palm muted until the song ends---------|

            
            
Suggest correction
Creating personal tab
Creating personal tab
You can edit any tab online and save it as your Personal.

You can edit, replace or remove any tab part or add personal notes – all changes will be seen only by you.

Personal tabs can be accessed anytime from any device, even offline.
Learn more »
Give kudos to tab author, rate the tab!
1 2 3 4 5
comments
print report bad tab
2 comments total.
0 reply
Blood Hawk 70 Jun 24, 2006 03:18 PM

The Song kicks so much ass


good job

0 reply
fulvibus91 92 May 20, 2008 07:04 AM

is not the correct tuning

guest
Wanna post a correction for this tab? Suggest correction