Oops, an error
Loading. Please wait.

Anywhere But Here tab

version 2
version 2

Whole song

Interactive

3,517 views 1 this week
no commentswrite comment
1 2 3 4 5
x 4
add to favorites
×
Save as Personal and add changes to this tab that will be seen only by you. Learn more ›
×
You can save this tab as Personal to edit and correct it or add notes. All changes will be seen only by you. Learn more »
launch autoscroll
font size
0
reset
how to read this tab
guitar tuner
edit
Autoscroll
slow
fast
+/-
esc
set tempo
stop
Author
Song: Anywhere But Here
Artist: Sick Puppies
Tuning: Drop C
Transcribed by: clemm

Leave feedback in comments please.

EDIT: Fixed verse 1

Intro:

D|------1------------1-----------1-------------3-----------------------------|
A|--------3------------3-----------3-------------3---------------------------|
F|----2-----2------2-----2-----2-----2-------2-----2-------------------------|
C|--0------------0-----------0------------0----------------------------------|
G|---------------------------------------------------------------------------|
C|---------------------------------------------------------------------------|

D|------3-------------3------------3------------3----------------------------|
A|--------3-------------3------------3------------3--------------------------|
F|----0-----0-------0-----0------0-----0------0-----0------------------------|
C|---------------------------------------------------------------------------|
G|--3-------------3------------3------------3--------------------------------|
C|---------------------------------------------------------------------------|

D|------3-------------3------------3------------3----------------------------|
A|--------3-------------3------------3------------3--------------------------|
F|----0-----0-------0-----0------0-----0------0-----0------------------------|
C|---------------------------------------------------------------------------|
G|--1-------------1------------1------------1--------------------------------|
C|---------------------------------------------------------------------------|

                                               End with (2nd time):
D|------------------------------------------|------1-------------------------|
A|------3-3-------3-3-------3-3------3-3----|------3-------------------------|
F|------2-2-------2-2-------2-2------2-2----|------2-------------------------|
C|----0---------0---------0--------0--------|------0-------------------------|
G|------------------------------------------|------0-------------------------|
C|--3---------3---------2--------2----------|------0-------------------------|

First 4 measures 2x               ^--Don't play second time, listen to song


Verse 1:

D|--------------------------------|
A|--------------------------------|
F|--------------------------------|
C|--0-0--3p2p0------------0-------|  -4x
G|--0-0--------1p0----1h3---------|
C|--0-0-------------5-------------|

D|---------------------------------------------------|
A|---------------------------------------------------|
F|---7-7--x-x-x--7-7--x-x-x--7-7--x-x-x--7-7--x-x-x--|
C|---7-7--x-x-x--7-7--x-x-x--7-7--x-x-x--7-7--x-x-x--|
G|---5-5--x-x-x--5-5--x-x-x--5-5--x-x-x--5-5--x-x-x--|
C|---------------------------------------------------|

D|---------------------------------------------------|
A|---------------------------------------------------|
F|---5-5--x-x-x--5-5--x-x-x--5-5--x-x-x--5-5--x-x-x--|
C|---5-5--x-x-x--5-5--x-x-x--5-5--x-x-x--5-5--x-x-x--|
G|---3-3--x-x-x--3-3--x-x-x--3-3--x-x-x--3-3--x-x-x--|
C|---------------------------------------------------|

D|---------------------------------------------------|
A|---------------------------------------------------|
F|---3-3--x-x-x--3-3--x-x-x--3-3--x-x-x--------------|
C|---3-3--x-x-x--3-3--x-x-x--3-3--x-x-x--------------|
G|---1-1--x-x-x--1-1--x-x-x--1-1--x-x-x--------------|
C|---------------------------------------8-7-5-8-7-5-|

D|---------------------------------------------------|
A|---------------------------------------------------|
F|---------------------------------------------------|
C|---3-3--x-x-x--3-3--x-x-x--2-2--x-x-x--2-2--x-x-x--|
G|---3-3--x-x-x--3-3--x-x-x--2-2--x-x-x--2-2--x-x-x--|
C|---3-3--x-x-x--3-3--x-x-x--2-2--x-x-x--2-2--x-x-x--|


D|---------------------------------------------------|
A|---------------------------------------------------|
F|---7-7--x-x-x--7-7--x-x-x--7-7--x-x-x--7-7--x-x-x--|
C|---7-7--x-x-x--7-7--x-x-x--7-7--x-x-x--7-7--x-x-x--|
G|---5-5--x-x-x--5-5--x-x-x--5-5--x-x-x--5-5--x-x-x--|
C|---------------------------------------------------|

D|---------------------------------------------------|
A|---------------------------------------------------|
F|---5-5--x-x-x--5-5--x-x-x--5-5--x-x-x--5-5--x-x-x--|
C|---5-5--x-x-x--5-5--x-x-x--5-5--x-x-x--5-5--x-x-x--|
G|---3-3--x-x-x--3-3--x-x-x--3-3--x-x-x--3-3--x-x-x--|
C|---------------------------------------------------|

D|---------------------------------------------------|
A|---------------------------------------------------|
F|---3-3--x-x-x--3-3--x-x-x--3-3--x-x-x--3-3-3-------|
C|---3-3--x-x-x--3-3--x-x-x--3-3--x-x-x--3-3-3-------|
G|---1-1--x-x-x--1-1--x-x-x--1-1--x-x-x--1-1-1-------|
C|---------------------------------------------------|

D|---------------------------------------------------|
A|--------6-6-6-------6-6-6-------5-5-5-------5-5-5--|
F|---------------------------------------------------|
C|---3-3---------3-3---------2-2---------2-2---------|
G|---3-3---------3-3---------2-2---------2-2---------|
C|---3-3---------3-3---------2-2---------2-2---------|


Chorus:
       Strum each octave 5 times (listen to song for pattern)
D|---------------------------------------------------------|
A|------------------------------(24x)(24x)(12x)------------|
F|---7-------9-------10------14-----3-------5--5-5-x-------|
C|---x-------x-------x--------x-----3----3--5--5-5-x--5-5--|
G|---5-------7-------8-------12-----1----3--3--3-3-x--5-5--|
C|---------------------------------------3------------5-5--|


Verse 2:

D|--------------------------------|--------------------------------|
A|--------------------------------|--------------------------------|
F|--------------------------------|--------------------------------|
C|--0-0--3p2p0------------0-------|--0-0--3p2p0--------------------|
G|--0-0--------1p0----1h3---------|--0-0--------1-0-1--------------|
C|--0-0-------------5-------------|--0-0---------------------------|

D|---------------------------------------------------|
A|---------------------------------------------------|
F|---7-7--x-x-x--7-7--x-x-x--7-7--x-x-x--7-7--x-x-x--|
C|---7-7--x-x-x--7-7--x-x-x--7-7--x-x-x--7-7--x-x-x--|
G|---5-5--x-x-x--5-5--x-x-x--5-5--x-x-x--5-5--x-x-x--|
C|---------------------------------------------------|

D|---------------------------------------------------|
A|---------------------------------------------------|
F|---5-5--x-x-x--5-5--x-x-x--5-5--x-x-x--5-5--x-x-x--|
C|---5-5--x-x-x--5-5--x-x-x--5-5--x-x-x--5-5--x-x-x--|
G|---3-3--x-x-x--3-3--x-x-x--3-3--x-x-x--3-3--x-x-x--|
C|---------------------------------------------------|

D|---3---6---3-------3---6---3-----------------------|
A|---3---3---3-------3---3---3-----------------------|
F|---------------------------------------------------|  -2x
C|---------------------------------------------------|
G|---------------------------------------------------|
C|---------------------------------------------------|

D|---------------------------------------------------|
A|--------6-6-6-------6-6-6-------5-5-5-------5-5-5--|
F|---------------------------------------------------|
C|---3-3---------3-3---------2-2---------2-2---------|
G|---3-3---------3-3---------2-2---------2-2---------|
C|---3-3---------3-3---------2-2---------2-2---------|

Not entirely sure about this section but it's more than what I got (Credit to ShredLifeAway92)
Whole section is palm muted

D|--------------------------------------------------------------------|
A|--------------------------------------------------------------------|
F|----2---3---2---2---3---2---2---3---2---2---3---2----2---3---2------|
C|--5---5---5---5---5---5---5---5---5---5---5---5---------------------|
G|---------------------------------------------------5---5---5--------|
C|--------------------------------------------------------------------|


D|--------------------------------------------------------------------|
A|--------------------------------------------------------------------|
F|----2---3---2---2---3---2---2---3---2----2---3---2---2---3---2------|
C|---------------------------------------5---5---5---5---5---5--------|
G|--5---5---5---5---5---5---5---5---5---------------------------------|
C|--------------------------------------------------------------------|


D|--------------------------------------------------------------------|
A|--------------------------------------------------------------------|
F|----2---3---2---2---3---2---2---3---2---2---3---2---2---3---2-------|
C|--5---5---5---5---5---5---------------------------------------------|
G|--------------------------5---5---5---5---5---5---5---5---5---------|
C|--------------------------------------------------------------------|

D|--------------------------------------------------------------------|
A|--------------------------------------------------------------------|
F|----2---3---2-------------------------------------------------------|
C|--------------------------------------------------------------------|
G|--5---5---5---------------------------------------------------------|
C|--------------------------------------------------------------------|


Chorus:
       Strum each octave 5 times (listen to song for pattern)
D|---------------------------------------------------------|
A|------------------------------(24x)(24x)(12x)------------|
F|---7-------9-------10------14-----3-------5--5-5-x-------|
C|---x-------x-------x--------x-----3----3--5--5-5-x--5-5--|
G|---5-------7-------8-------12-----1----3--3--3-3-x--5-5--|
C|---------------------------------------3------------5-5--|

Bridge:

D|-----------------------------------------------|
A|-----------------------------------------------|
F|-------------------------------------------8---|
C|--0-0---------0-0---------0-0---------0-0--8---| -2x
G|--0-0---------0-0---------0-0---------0-0--6---|
C|--0-0--0-0-0--0-0--0-0-0--0-0--0-0-0--0-0------|

D|-----------------------------------------------|
A|-----------------------------------------------|
F|-------------------8-------8------8------------|
C|--0-0---------0-0--8-------8------8------------| 
G|--0-0---------0-0--6-------6------6------------|
C|--0-0--0-0-0--0-0-----0-0-----0-0--------------|
                        . .     . .

D|-----------------------------------------------|
A|-----------------------------------------------|
F|--8-7-5----------------------------------------|
C|--8-7-5-6-5-3---------------------------0------| 
G|--6-5-3-6-5-3---6-6-5-5-3-3-------------0------|
C|--------6-5-3---------------6-6-5-5-3-3-0------|

D|--1--------------------------------------------|
A|--1------(12x)---------------------------------|
F|--3-(24x)-5-x----------------------------------|
C|--3--3----5-x--5-5-----------------------------| 
G|--1--3----3-x--5-5-----------------------------|
C|-----3---------5-5-----------------------------|

Chorus:

       Strum each octave 5 times (listen to song for pattern)
D|---------------------------------------------------------|
A|------------------------------(24x)(24x)(12x)------------|
F|---7-------9-------10------14-----3-------5--5-5-x-------|
C|---x-------x-------x--------x-----3----3--5--5-5-x--5-5--|
G|---5-------7-------8-------12-----1----3--3--3-3-x--5-5--|
C|---------------------------------------3------------5-5--|

Outro:

D|--------------------------------|
A|--------------------------------|
F|--------------------------------|
C|--0-0--3p2p0------------0-------|  -6x (Variation the last 2 times)
G|--0-0--------1p0----1h3---------|
C|--0-0-------------5-------------|

D|--------------------|
A|--------------------|
F|--8-7-5-------------|
C|--8-7-5-6-5-3--0~---| 
G|--6-5-3-6-5-3--0~---|
C|--------6-5-3--0~---|

D|------1------------1-----------1-------------3-----------------------------|
A|--------3------------3-----------3-------------3---------------------------|
F|----2-----2------2-----2-----2-----2-------2-----2-------------------------|
C|--0------------0-----------0------------0----------------------------------|
G|---------------------------------------------------------------------------|
C|---------------------------------------------------------------------------|

D|------3-------------3------------3------------3----------------------------|
A|--------3-------------3------------3------------3--------------------------|
F|----0-----0-------0-----0------0-----0------0-----0------------------------|
C|---------------------------------------------------------------------------|
G|--3-------------3------------3------------3--------------------------------|
C|---------------------------------------------------------------------------|

D|------3-------------3------------3------------3----------------------------|
A|--------3-------------3------------3------------3--------------------------|
F|----0-----0-------0-----0------0-----0------0-----0------------------------|
C|---------------------------------------------------------------------------|
G|--1-------------1------------1------------1--------------------------------|
C|---------------------------------------------------------------------------|

                                              
D|------------------------------------1-------------------------|
A|------3-3-------3-3-------3---3-----3-------------------------|
F|------2-2-------2-2-------2---2-----2-------------------------|
C|----0---------0---------0-----------0-------------------------|
G|------------------------------------0-------------------------|
C|--3---------3---------2-------------0-------------------------|


************************************

| h   hammer-on
| p   pull-off
| ~   vibrato
| x   Mute note
| .   Palm Mute

************************************

            
            
Suggest correction
Creating personal tab
Creating personal tab
You can edit any tab online and save it as your Personal.

You can edit, replace or remove any tab part or add personal notes – all changes will be seen only by you.

Personal tabs can be accessed anytime from any device, even offline.
Learn more »
comments
print report bad tab
guest
You may want to rate the tab now too:
select rating
Wanna post a correction for this tab? Suggest correction