Oops, an error
Loading. Please wait.

Cancer bass

version 1
version 1

Whole song

Interactive

7,474 views 3 this week
2 commentsread comments
1 2 3 4 5
x 4
add to favorites
×
Save as Personal and add changes to this tab that will be seen only by you. Learn more ›
×
You can save this tab as Personal to edit and correct it or add notes. All changes will be seen only by you. Learn more »
launch autoscroll
font size
0
reset
guitar tuner
edit
Autoscroll
slow
fast
+/-
esc
set tempo
stop
Author
Song: Cancer
Artist: Sick Puppies
Album: Dressed Up As Life
Tuning: Down 1/2 Step (Gb Db Ab Eb)
Tab Key: S=Slap
         P=Pop
         x=Mute

Intro/Main Riff
Gb|------------------------------------|
Db|------------------------------------|
Ab|------3------2------3------2--------|
Eb|--22-----22-----22-----22-----22-0--|

Gb|---|
Db|---|
Ab|---|
Eb|-2-|

Verse
Gb|------------------------------------|
Db|------------------------------------|
Ab|------3------2------3------2--------|
Eb|--22-----22-----22-----22-----22-0--|

Gb|---|
Db|---|
Ab|---|
Eb|-2-|

Pre-Chorus
Gb|---------------------------------------|
Db|---------------------------------------|
Ab|-------3-----2------------3-----2------|
Eb|----2-----2-----2--0---2-----2-----2---|

Gb|------------------------------------|
Db|------------------------------------|
Ab|-------3-----2------------3---------|
Eb|----2-----2-----2--0---2-----2------|

Chorus:
Gb|----------------------------------------------|
Db|----------------------------------------------|
Ab|----------------------------------------------|
Eb|--5-5-5-5555-7-7-7-7777-9-9-9-9999-9-9-9-9999-|

Gb|------------------|
Db|------------------|
Ab|------------------|
Eb|--5-5-5-5555-7-7--|

Main Riff Variation                                       P P P
Gb|-------------------------------------------------------5-5-5-----|
Db|-----------------------------------------------------------------|
Ab|-------3------2------3------2------------3------2----------------|
Eb|---22-----22-----22-----22-----22-0--22-----22-----22--------0h2-|
                                                                S
--->Verse

--->Pre-Chorus

--->Chorus

Bridge
Gb|-----------------------------------------|
Db|-----------------------------------------|
Ab|-4444-5555-4444-2222-7777-9999-7777-9999-|
Eb|-----------------------------------------|
        P     P   P     P     P   P     P     P   P     P     P   P
Gb|-----x-----x---x-----x-----x---x-----x-----x---x-----x-----x---x|
Db|----------------------------------------------------------------|
Ab|----------------------------------------------------------------|
Eb|-5-xx--5-xx--xx--7-xx--7-xx--xx--9-xx--9-xx--xx--9-xx--9-xx--xx-|
    S SS  S SS  SS  S SS  S SS  SS  S SS  S SS  SS  S SS  S SS  SS

        P     P   P     P     P   P     P     P   P     P     P   P
Gb|-----x-----x---x-----x-----x---x-----x-----x---x-----x-----x---x|
Db|----------------------------------------------------------------|
Ab|----------------------------------------------------------------|
Eb|-5-xx--5-xx--xx--7-xx--7-xx--xx--9-xx--9-xx--xx--9-xx--9-xx--xx-|
    S SS  S SS  SS  S SS  S SS  SS  S SS  S SS  SS  S SS  S SS  SS
Gb|--------------|
Db|--------------|
Ab|--------------|
Eb|-5----5----7--|

Gb|------------------------------------|
Db|------------------------------------|
Ab|------3------2------3------2--------|
Eb|--22-----22-----22-----22-----22-0--|
                                                          P P P
Gb|-------------------------------------------------------5-5-5-----|
Db|-----------------------------------------------------------------|
Ab|-------3------2------3------2------------3------2----------------|
Eb|---22-----22-----22-----22-----22-0--22-----22-----22--------0h2-|
                                                                S
Third Chorus                              P    P  P
Gb|---------------------------------------x----x--x--|
Db|--------------------------------------------------|
Ab|--------------------------------------------------|
Eb|--5-5-5-5555-7-7-7-7777-9-9-9-9999-9-xx-9-xx-xx---|
                                      S SS S SS SS
Gb|----------------------------------------------|
Db|----------------------------------------------|
Ab|----------------------------------------------|
Eb|--5-5-5-5555-7-7-7-7777-9-9-9-9999-9-9-9-9999-|

        P     P   P     P     P   P
Gb|-----x-----x---x-----x-----x---x-|
Db|---------------------------------|
Ab|---------------------------------|
Eb|-5-xx--5-xx--xx--7-xx--7-xx--xx--|
    S SS  S SS  SS  S SS  S SS  SS

            
            
Suggest correction
Creating personal tab
Creating personal tab
You can edit any tab online and save it as your Personal.

You can edit, replace or remove any tab part or add personal notes – all changes will be seen only by you.

Personal tabs can be accessed anytime from any device, even offline.
Learn more »
comments
print report bad tab
2 comments total.
0 reply
kumamilesbear 131 Mar 24, 2009 07:54 PM

sorry, but no
they play in drop c
working on my own version of this now
but yeh
drop c

0 reply
Chaosbass67 31 Feb 08, 2011 12:05 PM

Just because they play in drop C doesnt mean it's not possible when tuned different. Just looking over it things seem to be plenty good enough to be getting along with.

guest
You may want to rate the tab now too:
select rating
Wanna post a correction for this tab? Suggest correction